Nightwish - Sleeping Sun Chords & Tabs

 

Sleeping Sun Chords & Tabs

Nightwish Chords & Tabs

Version: 1 Type: Tab 0 ratings
1 star 2 stars 3 stars 4 stars 5 stars
comments

Sleeping Sun Tab

  Nightwish
   Sleeping Sun (solo)

  Transcribed by Nedi Lesev (vaquero@abv.bg)
 
  Standart tuning 
[ Tab from: http://www.guitartabs.cc/tabs/n/nightwish/sleeping_sun_tab.html ]
 E|---17\12-12\7-----------------------------------------------------------|
 B|----------------9~-----7--9-9--10-12/15-15-13\10~---\--10-9-7--12-10-9--|
 G|--------------------9---------------------------------------------------|
 D|------------------------------------------------------------------------|
 A|------------------------------------------------------------------------|
 E|------------------------------------------------------------------------|

 E|---13-12-10----10-12----------------------------------|
 B|------------13-------13/15~~--------------------------|
 G|-------------------------------10~--12~--14~----------|
 D|------------------------------------------------------|
 A|------------------------------------------------------|
 E|------------------------------------------------------|

  Have fun :)
Comments