Nightwish - Moondance Chords & Tabs

 

Moondance Chords & Tabs

Nightwish Chords & Tabs

Version: 1 Type: Tab 0 ratings
1 star 2 stars 3 stars 4 stars 5 stars
comments

Moondance Tab

   
Nightwish - Moondance
From "Oceanborn"

Tab by Abel...Of Darkness (midgar31@hotmail.com)

Standard Tuning (EADGBE)

Piano Intro.

Riff A
5 Times:
|----------------------------------------|
|----------------------------------------|
|----------------------------------------|
|----------------------------------------|
|-----------------8-----7------7---5--5--|
|-5--5-5-5--5-5-5-6-----5----x-5-x-3--7--|


Slow Part.


Riff B1
Two Times:
|------------------------------------------------------|
|------------------------------------------------------|
|---------------5---5---5---7---7---7------------------|
|---7---7---7---5---5---5---7---7---7---5---5---7---7--|
|---7---7---7-3-3-3-3-3-3-5-5-5-5-5-5---5---5---7---7--|
|-5-5-5-5-5-5-------------------------3-3-3-3-5-5-5-5--|

[ Tab from: http://www.guitartabs.cc/tabs/n/nightwish/moondance_tab.html ]
Riff B2
Two Times:
|------------------------------------------------------|
|------------------------------------------------------|
|---7---7---7---------------7---7---7------------------|
|---7---7---7---7---7---7---7---7---7-7---------5------|
|-5-5-5-5-5-5---7---7---7-5-5-5-5-5-5-7---------5------|
|-------------5-5-5-5-5-5-------------5---------3------|

Riff B3
Two Times: (Second time Play the part with *)
|------------------------------------------------------|
|------------------------------------------------------|
|---------------------5-------7------------------------|
|---7---7---7-7-------5-------7--------5--------7------|
|---7---7---7-7-------3-------5--------5--------7------|
|-5-5-5-5-5-5-5------------------------3--------5------|
                     **********************************


Riff C
Two Times:
|-------------------------------------------------------------------|
|-------------------------------------------------------------------|
|--------------------7-7-7-8-7-5-7---8-10-8-7-8-7-5-7-------5-------|
|-5-7-8-5-5-5-7-8-5-5---------------------------------8-8-8---7---5-|
|---------------------------------------------------------------8---|
|-------------------------------------------------------------------|

Riff A
Four Times:

|--------------|
|--------------|
|--------------|
|--------------|
|-7--5--7-7-7--|
|-5--3--5-5-5--|


Any Mistake Please Send a mail to Midgar31@hotmail.com, thanks!
Comments