Nightwish - Know Why The Nightingale Sings Chords & Tabs

 

Know Why The Nightingale Sings Chords & Tabs

Nightwish Chords & Tabs

Version: 1 Type: Tab 0 ratings
1 star 2 stars 3 stars 4 stars 5 stars
comments

Know Why The Nightingale Sings Tab

e:--------------------------------------------------------------------------|
B:--------------------------------------------------------------------------|
G:-9-7-9--9-7-9-----------------------------9-------------------------------|
D:-9-7-9--9-7-9--10-9-10-10-9---------------9-------------------------------|
A:-7-5-7--7-5-7--10-9-10-10-9--------10*-9*-7-------------------------------|
E:----------------8-7--8--8-7-5-7-9*----------------------------------------|

e:--------------------------------------------------------------------------|
B:--------------------------------------------------------------------------|
G:-9-----------5--7--9-----------5--7--9------------------------------------|
D:-9--2--5--7--5--7--9--2--5--7--5--7--9------------------------------------|
A:-7--2--5--7--3--5--7--2--5--7--3--5--7------------------------------------|
E:----0--3--5-----------0--3--5---------------------------------------------|


e:--------------------------------------------------------------------------|
B:--------------------------------------------------------------------------|
G:-9-7-9--9-7-9-----------------------------9-------------------------------|
D:-9-7-9--9-7-9--10-9-10-10-9---------------9-------------------------------|
A:-7-5-7--7-5-7--10-9-10-10-9--------10*-9*-7-------------------------------|
E:----------------8-7--8--8-7-5-7-9*----------------------------------------|

e:--------------------------------------------------------------------------|
B:--------------------------------------------------------------------------|
G:-9-----------5--7--9-----------5--7--9------------------------------------|
D:-9--2--5--7--5--7--9--2--5--7--5--7--9------------------------------------|
A:-7--2--5--7--3--5--7--2--5--7--3--5--7------------------------------------|
E:----0--3--5-----------0--3--5---------------------------------------------|


e:--------------------------------------------------------------------------|
B:--------------------------------------------------------------------------|
G:-9--------9-9---9---9-----------------------------------------------------|
D:-9--------9-9---9---9-10--------10-10---10--------------------------------|
A:-7-7--7-7-7-7-7-7-7-7-10--------10-10---10----9*-7*-----------------------|
E:-----------------------8-8--8-8--8--8-8--8-7*-------7*--------------------|

[ Tab from: http://www.guitartabs.cc/tabs/n/nightwish/know_why_the_nightingale_sings_tab.html ]
e:---------------------------------------------------------------------------|
B:---------------------------------------------------------------------------|
G:-12-----------12-12----12----12--------------------------------------------|
D:-12-----------12-12----12----12-13-----------13-13----13----13-------------|
A:-10-10--10-10-10-10-10-10-10-10-13-----------13-13----13----13-----12*-10--|
E:--------------------------------11-11--11-11-11-11-11-11-11-11-10*---------|


e:-------------------------------------------------------------------------|
B:-------------------------------------------------------------------------|
G:-15-14-12----------------------------------------------------------------|
D:----------15-13-12--------------12---------------------------------------|
A:-------------------12-13--13-15----10*-----------------------------------|
E:-------------------------------------------------------------------------|


e:-------------------------------------------------------------------------|
B:-------------------------------------------------------------------------|
G:-------------------------------------------------------------------------|
D:------------------------------15-13-12-[12,9,10,12,10,9]/17-[19,17,16]---|
A:-(12-13----15-13-12)-----------------------------------------------------|
E:-------13------------13-15-17--------------------------------------------|

e:-------------------------------------------------------------------------|
B:-------------------------------------------------------------------------|
G:----------12-------12-14-15--15-14-12-10---------------------------------|
D:-13-12-------15-13-------------------------------------------------------|
A:-------13----------------------------------------------------------------|
E:-------------------------------------------------------------------------|


e:-------------------------------------------------------------------------|
B:-------------------------------------------------------------------------|
G:-12-14-15-17-15-15-14-15-12--19-19-19-17-15-17-15-14---------------------|
D:-------------------------------------------------------------------------|
A:-------------------------------------------------------------------------|
E:-------------------------------------------------------------------------|

e:-------------------------------------------------------------------------|
B:-------------------------------------------------------------------------|
G:-12-14-15-17-15-15-14-15-20--22/24-22-20-19-17---------------------------|
D:-------------------------------------------------------------------------|
A:-------------------------------------------------------------------------|
E:-------------------------------------------------------------------------|


e:--------------------------------------------------------------------------|
B:--------------------------------------------------------------------------|
G:-9-7-9--9-7-9-----------------------------9-------------------------------|
D:-9-7-9--9-7-9--10-9-10-10-9---------------9-------------------------------|
A:-7-5-7--7-5-7--10-9-10-10-9--------10*-9*-7-------------------------------|
E:----------------8-7--8--8-7-5-7-9*----------------------------------------|
Comments