Nightwish - Elvenpath Chords & Tabs

 

Elvenpath Chords & Tabs

Nightwish Chords & Tabs

Version: 2 Type: Tab 0 ratings
1 star 2 stars 3 stars 4 stars 5 stars
comments

Elvenpath Tab

   
NIGHTWISH: ELVENPATH- ANGELS FALL FIRST
TABBER: EMPPU_Jr.

PLEASE RATE

(In the sheltering shade of the forest
Calling calming silence
Accompanied only by the full moon
The howling of a night wolf
And the path under my bare feet...
...The Elvenpath)

INTRO
0:24
E|-------------------------|
B|-------------------------|
G|-------------------------|
D|-------------------------|
A|----3--2--0-----5--3-----|
E|1------------3--------3--|


0:27    2 TIMES
E|-----------------------|-----------------------|--------------------|
B|-----------------------|-----------------------|--------------------|
G|-----------------------|-----------------------|--------------------|
D|--------------------5--|-----------------------|--------------------|
A|-------7----7---5---3--|-------7----7--5----7--|-------7----7--5----|
E|----5--5----5---3------|----5--5----5--3----5--|-------5----5--3----|
     1st                   ||      2nd                |||
E|-------------------------||-------------------------|||
B|-------------------------||-------------------------|||
G|-------------------------||-------------------------|||
D|----------------7--5-----||-------------------------|||
A|----3--2--0--5--------5--||----3--2--0--5--5--3-----|||
E|1------------------------||1---------------------3--|||

 VERSE
0:53)
E|-------------------------------------------|
B|-------------------------------------------|
G|---------------------7---------------------|
D|--7-----8---5---7----7---3---5---8---5---7-|
A|--7-----8---5---7----5---3---5---8---5---7-|
E|--5-----6---3---5--------1---7---6---3---5-|
    A     B   G   A    D   F   A   Bb  G   A

A       Bb              G      A
Hearing music from the deepest forest
D          F            A
Songs as a seduction of sirens
    Bb          G       A . A
The elf-folk is calling me

>Riff 2(1:04):
E|-------------------------|
B|-------------------------|
G|-------------------------|
D|--3--2--0----------------|
A|-------------------0--2--|
E|-------------1--3--------|


CHORUS
(1:06) PALM MUTED
A                 Bb           G
Tapio, Bear-king, Ruler of the forest
A                    D             F
Mielikki, Bluecloak, Healer of the ill and sad
A                 Bb     G          A . A .. A . A ...
Open the gate and let me follow the uncarven path


RIFF. (1:19)
 PALM MUTED:
    C          G
The way to the lands
           Bb      A
Where as a hero I stand
               F              D
The path where Beauty met the Beast
Elvenpath

         C                G
It's the honesty of these worlds
         Bb                A
Ruled by magic and mighty swords
              F                  D
That makes my soul long for the past
Elvenpath

TAB TO THE REFF:
           C                                G
  E||----------------------------------------------------------------------|
  B||----------------------------------------------------------------------|
  G||----------------------------------------------------------------------|
  D||------5---------------------------------------------------------------|
  A||0--2--3--3-3-3-3-3-3-3-3-3-3-3-3-3-3---5------------------------------|
  G||---------------------------------------3--3-3-3-3-3-3-3-3-3-3-3-3-3-3-|
    P.M . . . . . . . . . . . . . . . . . . . . . . . . . . . . . . . . . .
     Bb                               A
  -------------------------------------------------------------------|
  -------------------------------------------------------------------|
  -------------------------------------------------------------------|
  --3--------------------------------2-------------------------------|
  --1--1-1-1-1-1-1-1-1-1-1-1-1-1-1---0--0-0-0-0-0-0-0-0-0-0-0-0-0-0--|
  -------------------------------------------------------------------|
    P.M. . . . . . . . . . . . . . . . . . . . . . . . . . . . . . .
    F                                D
  ----------------------------------------------------------------|
  ----------------------------------------------------------------|
  ----------------------------------------------------------------|
  -----------------------------------7----------7----------7------|
  --3--------------------------------5--5-5-5-5-5--5-5-5-5-5--5-5-|
  --1--1-1-1-1-1-1-1-1-1-1-1-1-1-1--------------------------------|
 P.M. . . . . . . . . . . . . . . . . . . . . . . . . . . . . . .

  -------------------------------------------------------------------||
  -------------------------------------------------------------------||
  -------------------------------------------------------------------||
  -------------------------------------------------------------------||
  --5-7-7-7-7-7-7-7-5-7-7-7-7-7-7-7---5-7-7-7-5-7-7-7-7-8-7-5-3--0-0-||
  -------------------------------------------------------------------||


>RIFF 1   1:43


>VERSE 2   2:09:
     A         Bb           G         A
The moonwitch took me to a ride on a broomstick
      D               F           A
Introduced me to her old friend home gnome
 Bb         G         A . A
Told me to keep the sauna warm for him


>Riff 2 (2:20)


> (2:22):
        A                          Bb         G
At the grove I met the rest - the folk of my fantasies
A                D            F
Bilbo, Sparhawk, goblins and pixies
 A                Bb             G
Snowman, Willow, trolls and the seven dwarves
  A . A .. A . A ...
The path goes forever on


2:35

[ Tab from: http://www.guitartabs.cc/tabs/n/nightwish/elvenpath_tab_ver_2.html ]
2:59
E|-----------------------|-----------------------|--------------------|
B|-----------------------|-----------------------|--------------------|
G|-----------------------|-----------------------|--------------------|
D|-----------------------|-----------------------|--------------------|
A|-----------------------|-------7----7--5----7--|--------------------|
E|-----------------------|----5--5----5--3----5--|--------------------|

    1ST                    ||    2ND                  |||
E|-------------------------||-------------------------|||
B|-------------------------||-------------------------|||
G|-------------------------||-------------------------|||
D|----------------7--5-----||-------------------------|||
A|----3--2--0--5--------5--||----3--2--0--5--5--3-----|||
E|1------------------------||1---------------------3--|||



>Riff 3 (3:12)
E|-----------------------------------|------------------------------------|
B|-----------------------------------|------------------------------------|
G|--------------------------------5--|------------------------------------|
D|--2--3--2---2--3----2--3--2--3--5--|---2--3--2---2--3---2--3--2---3--5--|
A|--2--3--2---2--1----2--3--2--3--3--|---2--3--2---2--3---2--3--2---3--5--|
E|--0--1--0---0--1----0--1--0--1-----|---0--1--0---0--1---0--1--0---1--3--|


>Riff 4  (3:26):

|----------------------------------------------------------|
|----------------------------------------------------------|
|----------------------------------------------------------|
|--------3--2--------5--3--------3--2----5--3--2-----------|
|--0--0--------0--0--------0--0-------------------5--3--2--|
|----------------------------------------------------------|
 P.M. .         . .        .  .          .  .  .  .  .  .
|-----------------------------------------------------|
|-----------------------------------------------------|
|-----------------------------------------------------|
|--------3--2--------5--3----3--------3--------3------|
|--0--0--------0--0----------1--1--1--1--1--1--1--1---|
|-----------------------------------------------------|
 P.M. .        .  .             .  .     .  .     .
|----------------------------------------------------------|
|----------------------------------------------------------|
|----------------------------------------------------------|
|--------3--2--------5--3--------3--2----5--3--2-----------|
|--0--0--------0--0--------0--0-------------------5--3--2--|
|----------------------------------------------------------|
 P.M. .        .  .        .  .          .  .  .  .  .  .
|--------------------------------|
|--------------------------------|
|--------------------------------|
|--------3--2--------5--3----0---|
|--0--0--------0--0----------0---|
|--------------------------------|
 P.M. .        .  .

As I return to my room
And as sleep takes me by my hand
Madrigals from the woods
Carry me to neverland
In this spellbound night
The world's an elvish sight
In this spellbound night
The world's an elvish sight


>Riff 3 (3:52)


>SOLO (4:05)
E|------------------------------------------|
B|-------10-----12--13--12------------------|
G|----9------9--------------12---9--10--9---|
D|------------------------------------------|
A|------------------------------------------|
E|------------------------------------------|

--------------------------------------------------------|
-------10-----12--13--12--------------------------------|
----9------9--------------12----------------------------|
--------------------------------12--10--9----10--9------|
----------------------------------------------------10--|
--------------------------------------------------------|

--------------------------------------------------------|
----------10----12----13----12--13--13--15--13--13--12--|
-------9------------------------------------------------|
--------------------------------------------------------|
--7-----------------------------------------------------|
--------------------------------------------------------|

-----------------------------------------------------------------|
------------------------------------------------8-10-8-----------|
----12------------------------------4-5-4-5-7-9--------9-7-9-7-5-|
----------------15p12-----------5-7------------------------------|
----------------------15p12--------------------------------------|
----------------------------13-----------------------------------|

-------------------------------------------------------------|
-------------------------------------------------------------|
----------------------------------------------------------2--|
--7-----------------------------------------2--3--5--3----3--|
---------7--5----3--0--------------0-------------------------|
------------------------------3------------------------------|

-----------------------------------------------------|
----5--3--------5------------------10-13-12-10-9-10--|
----5--4--------5----------9-10-12-------------------|
----------------------7-10---------------------------|
-----------------------------------------------------|
-----------------------------------------------------|

------------------8--12------------12-17--16--17----------------|
------10-10-12-12--------12--13-------------------17------------|
------------------------------------------------------17--14-16-|
----------------------------------------------------------------|
----------------------------------------------------------------|
----------------------------------------------------------------|

---------------------------------------------------------|
--13-12-13----12----10--------10-------------------------|
------------------------12--------9--10--7--9------7-----|
-----------------------------------------------10-----9--|
---------------------------------------------------------|
---------------------------------------------------------|

------------------------||
------------------------||
------------------------||
--10--7--9--6--7--------|| ENJOY!             TABBED BY: EMPPU_Jr.
------------------------||
------------------------||
Comments