Nightwish - Dark Chest Of Wonders Chords & Tabs

 

Dark Chest Of Wonders Chords & Tabs

Nightwish Chords & Tabs

Version: 3 Type: Tab 0 ratings
1 star 2 stars 3 stars 4 stars 5 stars
comments

Dark Chest Of Wonders Tab

Band:           Nightwish
Aibum:          Once
Song:           Dark Chest of Wonders              edit: 19 - January - 2005
Transcribed by: Hebert Bravo
E-mail:         wizardhp_7@hotmail.com

Sorry again, but now this tab are in the correct tune. Now this tab are good.
For mistakes, corrections, suggest... please mail me.

Intro (00:03)
|---------------------------------------------------------------|
|---------------------------------------------------------------|
|---------------------------------------------------------------|
|-4-5-7-5-44-4-5-7-5-----4-5-7----------------------------------|
|-4-5-7-5-44-4-5-7-5-----4-5-7-4-5-4-5-8-7-5-4—-4/5\4-4—4/5\4-4-|
|-2030503022-20305032232020305-2-3-2-3-6-5-3-2—-2/3\2-2—2/3\2-2-|
   . . . .    . . . ..... . . 

Riff 1 (00:14)                   
At the end of this part I supused to be with tremol but my guitar not have tremol.
Any way, I use the slide.
                                                          
|---------------------------------------------------------------------|
|---------------------------------------------------------------------|
|-----------------------------------------------------3-2b~-/15~-/15~-|
|---------------------------------------------1-------------/15~-/15~-|
|----------------------------------------------1-4-0-4-4--------------|
|522322522322322-522322522323532-522322522323-------2-----------------|

 Riff 2(00:24)
|-------------------------------------------------------------------|
|-------------------------------------------------------------------|
|---------------------------------------------------------------5-5-|
|-7-5-7-5-44-7-5-7-5-----7-5-7----------------------------------5-5-|
|-7-5-7-5-44-7-5-7-5-----7-5-7-4-5-4-5-8-7-5-4--4/5\4-4-4/5\4-4-3-3-|
|-5030503022-50305032232050305-2-3-2-3-6-5-3-2--2/3\2-2-2/3\2-2-----|
   . . . .    . . . ..... . .  

|-----------------------------------------------------|
|-----------------------------------------------------|
|----------------------------------------------6--4-7-|
|-7-5-7-5-44-7-5-7-5-----7-5-7-----------------6--4-7-|
|-7-5-7-5-44-7-5-7-5-----7-5-7-4-5-4-5-8-7-5-4-4--2-5-|
|-5030503022-50305032232050305-2-3-2-3-6-5-3-2--------|
   . . . .    . . . ..... . .
 
Riff 3 (00:44)
|-----------------------------------------------------------------|
|-----------------------------------------------------------------|
|-----------------------------------------------------------------|
|-7-----5-7---5-7-5-7--------5---5-9-7-9-----7-9---7-9-7-9---7--4-|
|-7-----5-7---5-7-5-7--------5---5-9-7-9-----7-9---7-9-7-9---7--4-|
|-5555553-55553-5-3-55555555533333-7-5-7777775-77775-7-5-77775--2-|
   .....   ...       ........ ...       .....   ...       ...

Chours (01:02)
|---------------------------------------------------------------|
|---------------------------------------------------------------|
|---------------------------------------4-4-4-4-4-4-------------|
|---4--4--4-----------4--4--4-----------4-4-4-4-4-4--5-5-7-7-77-|x2
|---4--4--4-2h4/6\2---4--4--4-2h4/6\2-2222222-2-2-2--5-5-7-7-77-|
|-222222222-0h2/4\0-222222222-0h2/4\0--------------333333555555-|
  .. .. ..          .. .. ..          .. . .       .. . . . .


Guitar II Riff 3 (01:22)
Guitar I (01:22)
|-------------------------------------------------------------------------|
|-------------------------------------------------------------------------|
|----------9-10-7-9--------------7-9-7-9\------9-10-7-9----7-7---------9*-|
|-7--7-9-10--------10-9-7--7-9-10--------7-9-10--------10-7---10-9-7-9----|
|-------------------------------------------------------------------------|
|-------------------------------------------------------------------------|
[ Tab from: http://www.guitartabs.cc/tabs/n/nightwish/dark_chest_of_wonders_tab_ver_3.html ]
|---------------------------------------------------------------------------|
|---------------------------------------------------------------------------|
|---------11-12-9-11----------------9-11-9-11-------11-12-9-11----9-9-------|
|9-9-11-12----------12-11-9--9-11-12---------9-11-12----------12-9---12-11-9|
|---------------------------------------------------------------------------|
|---------------------------------------------------------------------------|

 Repeat Chours x2  (01:37)                          2nd time
|---------------------------------||-----------------------------|
|---------------------------------||-----------------------------|
|---------------------------------||---4-4-4-4-4-4---------------|
|---------------------------------||---4-4-4-4-4-4---5-5-7-------|
|---------------------------------||-2222222-2-2-2---5-5-7-------|
|---------------------------------||---------------333333555555--|
                                     .. . .        .. . . .....
Verse 1 (01:58)  "Fly to a dream...")
|------------------------------------------------------------|
|------------------------------------------------------------|
|-------7---9----------------7-------4-----------------------|
|-9---5-7---9--4-5-7-9---9---7-5--4--4---4-5-7---------------|
|-9---5-5---7--4-5-7-9---9---5-5--4--2---4-5-7---------------|
|-7---3--------2-3-5-7---7-----3--2------2-3-5---------------|

 Interlude 1 (02:20)
|-----------------------------------------------------------|
|-----------------------------------------------------------|
|-----------------------------------------------------------|
|-7-5-7-5-------7-5-7-5-5-----7-5-7-5-44-7-5------7-44------|
|-7-5-7-5-44444-7-5-7-5-54444-7-5-7-5-44-7-5-444447-44------|
|-5030503022222-5030503032222-5030503022-5030222225022------|
   . . . .       . . . .       . . . .    . .      .
|-----------------------------------------------------------|
|-----------------------------------------------------------|
|-------------------6666------------------------------------|
|-------4444--6666--4444------------------------------------|
|-4444--2222--4444------------------------------------------|
|-2222------------------------------------------------------|

 Interlude 2 (02:36)          1st time, 2nd time
|----------------------------||-------||-------||------------------------|
|----------------------------||-------||-------||------------------------|
|----------------------------||-------||-------||------------------------|
|----------------------------||-------||-------||------------------54----| x2
|-2222-2222-2222-2222-2-2222-||---3---||---3*--||-2222-2222-222h333—-5*~-|
|-0000 0000 0000 0000 0 0000-||---1---||-------||-0000-0000--------------|
  .... .... .... .... . ....                      .... ....
 
Verso 2 (02:55)
|-----------------------------------------------------------|
|-----------------------------------------------------------|
|-----7---6---4--6----------7----------4--------------------|
|-4---7---6---4--6------4---7------4---4--5-----------------|
|-4---5---4---2--4------4---5------4---2--5-----------------|
|-2-----------------2-2-2------2-2-2------3-----------------|

 Repeat Interlude 2 with slide down (x1)(03:15)
 (03:25) (Ah, ah, ah ,ah...)
|-----------------------------------------------------------|
|-----------------------------------------------------------|
|-----------------------------------------------------------|
|---------------------------------------76------------------|
|-4---4---4---4---4----5-4---4—--444h555—-7-----------------|
|-2-222-222-222-22222223-2-222-22---------------------------|
    ..  ..  ..  .. ....    ..  ..
 
Repeat Verse 1 (03:36)
 Outro (03:59)
|-------------------------------------------------------|
|-------------------------------------------------------|
|---6-6-66--4----------------------9-----9xx------------|
|---6-6-66--4--6-6-6-6-6--7-7-6-7-99-----9xx------------|
|-44444444222--6-6-6-6-6--7-7-6-7-9777...7xx...---------|
|------------4444444444455555445577---------------------|
  .. . .  .. .. . . . . .. . . . .  .....
|-----------------------------------------------------------|
|-----------------------------------------------------------|
|---6-6-66--4-------------4-4-4-4-4------------------66--66-|
|---6-6-66--4--5-5-4-4-4--4-4-4-4-4--6-6-7-7-7--9----66--66-|
|-44444444222--5-5-4-4-422222222222--6-6-7-7-7--9----44--44-|
|------------33333222222-----------44444555555777-----------|
  .. . .  .. .. . . . . .. . . . . .. . . . . ..
End
This is all ‘ENJOY!
Comments