Nightwish - Beauty And The Beast Chords & Tabs

 

Beauty And The Beast Chords & Tabs

Nightwish Chords & Tabs

Version: 2 Type: Tab 0 ratings
1 star 2 stars 3 stars 4 stars 5 stars
comments

Beauty And The Beast Tab

BEAUTY AND THE BEAST  -  NIGTHWISH
From The Album Angels Fall First
Tunned down 1/2 step

Tabbed by Mateo Payssť



Intro (0:00 - 1:30): 
|-------------------------------------|-------------------------------------|
|-------------------------------------|-------------------------------------|
|-------------------------------------|-------------------------------------|
|-------------------------------------|-------------------------------------|
|--6--8-2-------6--8-2-------6--8-2---|--6--8-------------------------------|
|--4--6-0-------4--6-0-------4--6-0---|--4--6-33333333333333333333333333333-|

|-------------------------------------|-------------------------------------|
|-------------------------------------|-------------------------------------|
|-------------------------------------|-------------------------------------|
|-------------------------------------|-------------------------------------|
|--8--5-------------------------------|--8--5--2-0----------------2-0-------|
|--6--3-33333333333333333333333333333-|--6--3------3---0-0-2-3--------------|

|-------------------------------------|-------------------------------------|
|-------------------------------------|-------------------------------------|  
|-------------------------------------|-------------------------------------|  
|-------------------------------------|-------------------------------------|  
|--3-2-1-0-------2----------0--6--8---|--2-0---------------2-0--------------|
|----------3-2-0----3-0-2-3----4--6---|------3--0-0-2-3---------------------|

|-------------------------------------|
|-------------------------------------|
|-------------------------------------|
|-------------------------------------|
|--3-2-1-0-------2----------0--6--8---|
|----------3-2-0----3-0-2-3----4--6---|

|-------------------------------------|-------------------------------------|
|-------------------------------------|-------------------------------------|
|-------------------------------------|-------------------------------------|
|-------------------------------------|-------------------------------------|
|--6--8---6--8---6--8---6--8---6--8---|--6--8---6--8---6--8---6--8----------|
|--4--6---4--6---4--6---4--6---4--6---|--4--6---4--6---4--6---4--6----------|

|-------------------------------------|
|-------------------------------------|
|-------------------------------------|
|-------------------------------------|
|--6--8---6--8---6--8---2-------------|
|--4--6---4--6---4--6---0-------------|
				      
|-------------------------------------|-------------------------------------|
|-------------------------------------|-------------------------------------|
|-------------------------------------|-------------------------------------|
|-------------------------------------|-------------------------------------|
|--7-x---3-x---5-5-x---6---3----------|--7----3----5----8-8--7--------------|
|--5-x---1-x---3-3-x---4---1----------|--5----1----3----6-6--5--------------|



Verse 1 (Beast) (1:30 - 1:46):
|---------------------------------------------------------------------------|
|---------------------------------------------------------------------------|
|---------------------------------------------------------------------------|
|---------------------------------------------------------------------------|
|--7----7----7----7----3----3----3----3----5----5----5----5----8----5h7-8p7-|
|--5-55-5-55-5-55-5-55-1-11-1-11-1-11-1-11-3-33-3-33-3-33-3-33-6------------|

|---------------------------------------------------------------------------|
|---------------------------------------------------------------------------|
|---------------------------------------------------------------------------|
|---------------------------------------------------------------------------|
|--7----7----7----7----3----3----3----3----5----5----5----5----8-8---5------|
|--5-55-5-55-5-55-5-55-1-11-1-11-1-11-1-11-3-33-3-33-3-33-3-33-6-6---3------|



Verse 2 (Beauty) (1:46 - 2:03):

|---------------------------------------------------------------------------|
|---------------------------------------------------------------------------|
|---------------------------------------------------------------------------|
|--------7------------------------------7-----------------------------------|
|--7-----5-----5-----8----5-5-5-5-7-----5-----5-----8----5-5-5-5-x----------|
|--5-----------3-----6----3-3-3-3-5-----------3-----6----3-3-3-3-x----------|



Verse 3 (Beast) (2:03 - 2:20):

 Play Verse 1



Verse 4 (Beauty) (2:20 - 2:37):

 Play Verse 2


[ Tab from: http://www.guitartabs.cc/tabs/n/nightwish/beauty_and_the_beast_tab_ver_2.html ]
(Beast voice)
|-------------------------------------|-------------------------------------|
|-------------------------------------|-------------------------------------|
|-------------------------------------|-------------------------------------|
|-------------------------------------|---------------(REST)----------------|
|--6--8--6--8--6--8--6--8---2---------|-------------------------------------|
|--4--6--4--6--4--6--4--6---0---------|-------------------------------------|



Guitar Solo (3:10 - 3:30):
|-------------------------------9-----|----------10--10p9p7-----------------|
|---------------------10---12-----12--|--9-10-12------------10---10h12-10-9-|
|-7h9b---7/6--6-4---9----9----9-------|------------------------9~~----------|
|-------------------------------------|-------------------------------------|
|-------------------------------------|-------------------------------------|
|-------------------------------------|-------------------------------------|

|-------------------------------------|---------10--9-7---------------------|
|---10---12---12/14-12----------------|-9-10-12---------10-10~~-9h10p9b-----|
|-9----9----9-------------------------|-------------------------------------|
|-------------------------------------|-------------------------------------|
|-------------------------------------|-------------------------------------|
|-------------------------------------|-------------------------------------|



Verse 5 (Beauty) (3:30 - 4:18)
|--------------------------------------------------------------------------|
|--------------------------------------------------------------------------|
|--------------------------------------------------------------------------|
|--2------------2--------------2------------2------------------------------|
|--0--2--7--5---0--2--7--5-7---0--2--7--5---0--2--7--5-7-5-----------------|
|-----0--5--3------0--5--3-5------0--5--3------0--5--3-5-3-----------------|

|-------------------------------------|
|-------------------------------------|
|-------------------------------------|
|-------------------------------------|
|--5-4--0--let ring-------------------|
|--3/2--2-----------------------------|

"Forever Shall The Wolf In Me Desire The Sheep In You"

Instrumental Part (4:18 - 6:24)
|--------------------------------------------------------------------------|
|--------------------------------------------------------------------------|
|--------------------------------------------------------------------------|
|--------------------------------------------------------------------------|
|--2------------------------8-5-2------------------------8-5-2-------------|
|--0-000-000-000-000-000-00-6-3-0-000-000-000-000-000-00-6-3-0-000-000-000-|

|--------------------------------------------------------------------------|
|--------------------------------------------------------------------------|
|--------------------------------------------------------------------------|
|--------------------------------------------------------------------------|
|-------------8-5-(2)-----------------------8-5-2--------------------------|
|--000-000-00-6-3----000-000-000-000-000-00-6-3-0--------------------------|

|--------------------------------------------------------------------------|  
|--------------------------------------------------------------------------|   
|--------------------------------------------------------------------------|    
|----2-----32-----3-----(3)(3)2--------------------------------------------|   
|-00--0--00----00----------------2-----------------------------------------|   
|--------------------------------0-----------------------------------------|

|--------------------------------------------------------------------------|  
|--------------------------------------------------------------------------|   
|--------------------------------------------------------------------------|   
|----2-----32-----3-----(3)(3)2--------------------------------------------|   
|-00--0--00----00---------------(7)b----------7r---------------------------|  
|--------------------------------------------------------------------------|  

|--------------------------------------------------------------------------|  \
|--------------------------------------------------------------------------|   |
|--------------------------------------------------------------------------|   |
|--------------------------------------------------------------------------|   |
|--2------------------------8-5-2------------------------8-5-2-------------|   |
|--0-000-000-000-000-000-00-6-3-0-000-000-000-000-000-00-6-3-0-000-000-000-|   |
										-  Play Till End
|--------------------------------------------------------------------------|   |
|--------------------------------------------------------------------------|   |
|--------------------------------------------------------------------------|   |
|--------------------------------------------------------------------------|   |
|-------------8-5-(2)-----------------------8-5-2--------------------------|   |
|--000-000-00-6-3----000-000-000-000-000-00-6-3-0--------------------------|  /
Comments