Nightwish - Astral Romance Chords & Tabs

 

Astral Romance Chords & Tabs

Nightwish Chords & Tabs

Version: 1 Type: Tab 0 ratings
1 star 2 stars 3 stars 4 stars 5 stars
comments

Astral Romance Tab

e:--------------------------------------------------------------------------|
B:--------------------------------------------------------------------------|
G:--------------------------------------------------------------------------|
D:-2---2-2-2-4-5-0---0-0-0-4-5----------------------------------------------|
A:-----------------------------3---3--2--0---0--2--3--2---------------------|
E:----------------------------------------------------0---------------------|

E:--------------------------------------------------------------------------|
B:--------------------------------------------------------------------------|
G:-0---0-0-0-2-4-5-2---2-2-2-4/7-5---5--4--2---2--4--5--4-------------------|
D:--------------------------------------------------------------------------|
A:--------------------------------------------------------------------------|
E:--------------------------------------------------------------------------|

E:--------------------------------------------------------------------------|
B:--------------------------------------------------------------------------|
G:-0---0-0-0-2-4-5-2---2-2-2-4/7-5---5--4--2--------------------------------|
D:---------------------------------------------2--4--5--2-2*----------------|
A:---------------------------------------------0--2--3--2-------------------|
E:------------------------------------------------------0-------------------|

E:---------------------------------------------------------------------------|
B:-----------------------------------------------------------Twice-----------|
G:---------------------------------------------------------------------------|
D:-----------------------------------------------------------4-5-7-5---------|
A:-----3------3------3------3------1*--------3------3------3-2-3-5-3---------|
E:-0-0-1--0-0-1--0-0-1--0-0-1--0-0-------0-0-1--0-0-1--0-0-1-----------------|


VERSE 1
E:--------------------------------------------------------------------------|
B:--------------------------------------------------------------------------|
G:--------------------------------------------------------------------------|
D:-----5-----4-----7-----5-----4/5-------5-----4-----7-----5-----4/5--------|
A:-0-0-3-0-0-2-0-0-5-0-0-3-0-0-2/3---0-0-3-0-0-2-0-0-5-0-0-3-0-0-2/3--------|
E:--------------------------------------------------------------------------|

E:--------------------------------------------------------------------------|
B:--------------------------------------------------------------------------|
G:-----5-----7-----5-----7-----5-------5-----7-----5-----7-----2------------|
D:-0-0-3-0-0-5-0-0-3-0-0-5-0-0-3---0-0-3-0-0-5-0-0-3-0-0-5-0-0-0------------|
A:--------------------------------------------------------------------------|
E:--------------------------------------------------------------------------|

E:--------------------------------------------------------------------------|
B:--------------------------------------------------------------------------|
G:--------------------------------------------------------------------------|
D:-----5-----4-----7-----5-----4/5-------5-----4-----7-----5-----4/5--------|
A:-0-0-3-0-0-2-0-0-5-0-0-3-0-0-2/3---0-0-3-0-0-2-0-0-5-0-0-3-0-0-2/3--------|
E:--------------------------------------------------------------------------|

E:--------------------------------------------------------------------------|
B:--------------------------------------------------------------------------|
G:-----5-----7-----5-----7-----5-------5-----7-----5-----7-----2------------|
D:-0-0-3-0-0-5-0-0-3-0-0-5-0-0-3---0-0-3-0-0-5-0-0-3-0-0-5-0-0-0------------|
A:--------------------------------------------------------------------------|
E:--------------------------------------------------------------------------|

E:----------------------|
B:----------------------|
G:----------------------|
D:----------------------|
A:-----3------3---3-----|
E:-0-0-1-0--0-1-0-1-0---|
[ Tab from: http://www.guitartabs.cc/tabs/n/nightwish/astral_romance_tab.html ]
E:--------------------------------------------------------------------------|
B:--------------------------------------------------------------------------|
G:--------------------------------------------------------------------------|
D:-5-5---3-3/5-5---8-8-8----10-10-10----------------------------------------|
A:-5-5---3-3/5-5---6-6-6...--8--8--8...-------------------------------------|
E:-3-3---1-1/3-3------------------------------------------------------------|

VERSE 2
e:--------------------------------------------------------------------------|
B:--------------------------------------------------------------------------|
G:--------------------------------------------------------------------------|
D:----------------------------------------------3---------------------------|
A:----------------------------------------------3-----6-5-3-5---------------|
E:-3-3-6-3-3-6-3-3-5-3-3-5-3-3-5--3-3-6-3-3-6-3-1---3-----------------------|


E:--------------------------------------------------------------------------|
B:--------------------------------------------------------------------------|
G:--------------------------------------------------------------------------|
D:--------------------------------8-8-8----10-10-10-------------------------|
A:--------------------------------6-6-6...--8--8--8...----------------------|
E:-3-3-6-3-3-6-3-3-5-3-3-5-3-3-5--------------------------------------------|


Repeat verse 2

E:--------------------------------------------------------------------------|
B:--------------------------------------------------------------------------|
G:--------------------------------------------------------------------------|
D:-----5-----3-----------------------5-----3--------------------------------|
A:---5-----5-------5-----6-5-3-----5-----5-------6-5-3-1-2-2-2-2------------|
E:-3-----3-----3-3---3-3-------6-3-----3-----3-3---------0-0-0-0------------|


E:--------------------------------------------------------------------------|
B:----------------------------------------------------------Do it Twice-----|
G:--------------------------------------------------------------------------|
D:--------------------------------------------------------------------------|
A:-6-6-6-6-6---7-6-4---6-6-6-6-6---7-6-4-2-2-2-2-2-2------------------------|
E:-4-4-4-4-4-4-------7-4-4-4-4-4-4---------0-0-0-0-0------------------------|


E:--------------------------------------------------------------------------|
B:--------------------------------------------------------------------------|
G:--------------------------------------------------------------------------|
D:------------------------5-4-2---2-4-5---2---------------------------------|
A:------------------------3-2-0---0-2-3---2---------------------------------|
E:----------------------------------------0---------------------------------|


E:---------------------------------------------------------------------------|
B:-------------------------------------------------------------------2-------| TIMES
G:-0---0-0-0-2-4-5-2---2-2-2-4/7-5---5--4--2---2--4--5--4--------------------|
D:---------------------------------------------------------------------------|
A:---------------------------------------------------------------------------|
E:---------------------------------------------------------------------------|


E:--------------------------------------------------------------------------|
B:--------------------------------------------------------------------------|
G:-------7-----5-----2-----------7-----5-----2------------------------------|
D:-2-----7-----5-----2-----2-----7-----5-----2------------------------------|
A:-2-----5-----3-----0-----2-----5-----3-----0------------------------------|
E:-0-----------------------0------------------------------------------------|

E:--------------------------------------------------------------------------|
B:--------------------------------------------------------------------------|
G:--------------------------------------------------------------------------|
D:-------7-7-7-5-5-5-2-2-2-------7-7-7-5-5-5-4-2---2-4-5---2----------------|
A:-2-2-2-5-5-5-3-3-3-0-0-0-2-2-2-5-5-5-3-3-3-2-0---0-2-3---2----------------|
E:-0-0-0-------------------0-0-0---------------------------0----------------|

e:---------------------------------------------------------------------------|
B:-17---17-17-17-19-20---------------19-20-----------------------------17-17-|
G:---------------------19---19-19-19-------17---17-16-14---14-14-16-17-------|
D:---------------------------------------------------------------------------|
A:---------------------------------------------------------------------------|
E:---------------------------------------------------------------------------|
Comments