Nightrage - Glow Of The Setting Sun Chords & Tabs

 

Glow Of The Setting Sun Chords & Tabs

Nightrage Chords & Tabs

Version: 1 Type: Tab 0 ratings
1 star 2 stars 3 stars 4 stars 5 stars
comments

Glow Of The Setting Sun Tab

                 Nightrage - Glow Of The Setting Sun
                     Album - Sweet Vengeance


  /-------p.m.--------------------------------\-----------------------------|
D:-------------INTRO--------------------------------------------------------|
A:--------------------------------------------------------------------------|
F:-----5---5----8x----------------------------------5---5------8x-----------|
C:---3---3---3------------------------------------3---3---3-----------------|
G:-5--------------------------------------------5---------------------------|
C:--------------------------------------------------------------------------|
[ Tab from: http://www.guitartabs.cc/tabs/n/nightrage/glow_of_the_setting_sun_tab.html ]
D:---------------------------------------------------------------------------|
A:-------------RIFF B--------------------------------------------------------|
F:-------------------------------------------------------------2x------------|
C:---3-333-3--3/5--55--5/7--77--5-55-3-333-3/5-555--00-00-0------------------|
G:---3-333-3--3/5--55--5/7--77--5-55-3-333-3/5-555--00-00-0------------------|
C:---3-333-3--3/5--55--5/7--77--5-55-3-333-3/5-555--00-00-0------------------|

D:-------------------------------------------------------------------------|
A:-------------VERSE-------------------------------------------------------|
F:-----------------------:------:------------------------------------------|
C:-0-2-0-2-0-2-0-2-3-0---:-FILL-:---4x-------------------------------------|
G:-0-------0---------0---:------:------------------------------------------|
C:-------------------------------------------------------------------------|

  Riff B for chorus here
Solo coming soon - very soon
Comments