Nightmare Of You - Why Am I Always Right Chords & Tabs

 

Why Am I Always Right Chords & Tabs

Nightmare Of You Chords & Tabs

Version: 1 Type: Tab 0 ratings
1 star 2 stars 3 stars 4 stars 5 stars
comments

Why Am I Always Right Tab

Song: Why Am I Always Right
Album: Nightmare Of You
Band: Nightmare Of You
Tabber: Calum Neil (afirock74@hotmail.com)
Tuning: Standard

Intro:
e|--------------------------|
B|-5--2--4--2--4--2--5--3---|
G|-4--2--5--2--5--2--4--2---|
D|-4--2--5--2--5--2--2--0---|
A|-2--0--2--0--2--0---------| 
E|--------------------------|

Riff:
e|----------------------------------------------|
B|----------------------------------------------|
G|----------------------------------------------|
D|-12-12--11-11--9-9--7/9/7--4-4-4/5/4--2--0-0--|
A|----------------------------------------------| 
E|----------------------------------------------|

Verse:
e|--10--|
B|--x---| (I think he only strums the "10", repeatedly)
G|--7---|
D|--9---|
A|------| 
E|------|
[ Tab from: http://www.guitartabs.cc/tabs/n/nightmare_of_you/why_am_i_always_right_tab.html ]
e|----------------------------|
B|----------------------------|
G|---7-6------------9/11-9-7--|
D|------7---------------------|
A|----------------------------| 
E|----------------------------|

Chorus:
e|------------------------------------------------|
B|--------------3-3-3-3-3-------------------------|
G|-4-4-4-4-4-4--2-2-2-2-2--6-6-6-6-6--8-8-8-8-8---|
D|-5-5-5-5-5-5--0-0-0-0-0--7-7-7-7-7--9-9-9-9-9---|
A|-5-5-5-5-5-5--0-0-0-0-0--7-7-7-7-7--9-9-9-9-9---| 
E|-3-3-3-3-3-3-------------5-5-5-5-5--7-7-7-7-7---|

e|------------------------------------------------|
B|--------------3-3-3-3-3-------------------------|
G|-4-4-4-4-4-4--2-2-2-2-2--6-6-6-6-6-6-6-6-6-6----|
D|-5-5-5-5-5-5--0-0-0-0-0--7-7-7-7-7-7-7-7-7-7----|
A|-5-5-5-5-5-5--0-0-0-0-0--7-7-7-7-7-7-7-7-7-7----| 
E|-3-3-3-3-3-3-------------5-5-5-5-5-5-5-5-5-5----|
Comments