Nightfall - Original Outsider Chords & Tabs

 

Original Outsider Chords & Tabs

Nightfall Chords & Tabs

Version: 1 Type: Tab 0 ratings
1 star 2 stars 3 stars 4 stars 5 stars
comments

Original Outsider Tab

   
Original Outsider
Nightfall
When The Sun Goes Down

Key:
~ = vibrato
po = pull off
h = hammer
* = let ring


Bass Intro:
G|--------------7-7----
D|-------0-0-----------
A|---------------------
D|0-0------------------

Chorus (Play twice):
E|---------22-22---
B|-----3-3---------
G|-----2-2---------
D|0-0--0-0------0-0
A|0-0-----------0-0
D|0-0-----------0-0

Verse:
E|---------------|-10-17-10-22-----------------------|
B|----------3----|-----------------------------------|
G|--------2---2--|-----------------------------------|
D|--0-----------0|----------------------------0-0-0-0|
A|0---0----------|-----------------------------------|
D|------0-------0|-------------0-0-0-0-0-0-0-0-------|

Bridge:
E|------------------------------------
B|----------------2-2-2-2-2-2-2-2-----
G|----------------2-2-2-2-2-2-2-2-----
D|0-0-0-0-0-0-0-0-2-2-2-2-2-2-2-2-0/12
A|0-0-0-0-0-0-0-0-0-0-0-0-0-0-0-0-0/12
D|0-0-0-0-0-0-0-0-----------------0/12
[ Tab from: http://www.guitartabs.cc/tabs/n/nightfall/original_outsider_tab.html ]
Outro:
E|5h7~-5po3-3h5~------------------
B|---------------3~po0-0h3~~~~----
G|--------------------------------
D|----------------------------0-0*
A|----------------------------0-0*
D|----------------------------0-0*

Bass Intro

Chorus

Verse

Bridge

Chorus

Verse

Bridge

Chorus

Here's the lyrics:
Original outsider
Way, way away from the center
It?s dark at day
And light at night
Something won?t let me stay
Original outsider
Nuttin? close to a collider 

Want a place to stay
Gotta place to stay
Want sumpin? to say
?Cos I got sumpin? to say
Havin? one hell of a day
So everyone just stay outta my way
Comin? out of no where
Comin? outta no where

Original outsider
Way, way away from the center
It?s dark at day
And light at night
Something won?t let me stay
Original outsider
Original outsider

Say it to my face
You are in my space
Start to run start to hide
Everybody screams as they run inside
Everybody screams as I run inside

Original outsider
Way, way away from the center
It?s dark at day
And light at night
Something won?t let me stay
Original outsider
Sumthin? outta my insider
Comments