Night Ranger - Goodbye Chords & Tabs

 

Goodbye Chords & Tabs

Night Ranger Chords & Tabs

Version: 1 Type: Chords 0 ratings
1 star 2 stars 3 stars 4 stars 5 stars
comments

Goodbye Chords

   
Goodbye
Night Ranger
From the Album-"Seven Wishes"
1985
Written by Jack Blades/Jeff Watson
Tabbed by Ray Scheidler 


Intro: Play Twice

   F                      F/A
E--1---------3--1---------1--------3--1---------
B-----1------------1---------1-----------1------
G-----------------------------------------------
D--------3------------3---------3-----------3---
A-----------------------------------------------
E-----------------------------------------------


   Bb                   Bb/D      Bb/C
E--1--------3--1---------1--------1-------------
B-----3-----------3---------3--------3----------
G--------------------3--------------------------
D--------3---------------------3--------3-------
A-----------------------------------------------
E-----------------------------------------------

   Bb                    C
E--1--------3--1---------0--------1--0----------
B-----3-----------3---------1-----------1-------
G--------------------3---------0-----------0----
D--------3--------------------------------------
A-----------------------------------------------
E-----------------------------------------------

   F               <     Riff  #1     >
E--1-----------------3---1----------------------
B-----1----------------------1------------------
G--------------------------------2--------------
D--------3---------------------------3----------
A-----------------------------------------------
E-----------------------------------------------


        F            F/A        Bb            Bb/D
As the sun hides his head for another night's rest

C        Bb             C        F (Riff 1)
And the wind sings his same old song

     F         F/A          Bb        Bb/D
And you on the edge never close never far

C       Bb           C         F (Riff 1)
Always there when I needed a friend

          Dm          C            Bb
But it's hard living life on this memory-go-round

       Dm         C             Bb
Always up always down spinning round & round & round

C   F             F/A          Bb        Bb/D
And all this could be such a dream so it seems
[ Tab from: http://www.guitartabs.cc/tabs/n/night_ranger/goodbye_crd.html ]
C      Bb         C           F
I was never much good at goodbye

                  F/A       Bb          Bb/D
There once was a time never far from my mind

C     Bb           C         F (Riff 1)
On a beach on the Fourth of July

               F/A           Bb           Bb/D
I remember the sand how you held out your hand

C       Bb               C            F (Riff 1)
And we touched for what seemed a lifetime

          Dm          C           Bb      
But it's hard leaving all this behind me now

          Dm         C          Bb
Like a schoolboy so lost never found until now

C   F             F/A          Bb        Bb/D
And all this could be such a dream so it seems

C      Bb         C           F
I was never much good at goodbye



    F   F/A  Bb Bb/D C  Bb    C    F
E--------------------------------------1--3--5--
B-----------------3--1-----------------------6--
G--(2)--(2)--(3)--3--0--(3)--(0)--(2)--------5--
D--(3)--(3)--(3)--3--2--(3)--(2)--(3)-----------
A--(3)--(3)--(5)--------(5)--(3)--(3)-----------
E-----------------------------------------------


          Dm          C            Bb
And it's hard living life on this memory-go-round

       Dm         C             Bb
Always up always down spinning round & round & round

C   F              F/A         Bb        Bb/D
And all this could be such a dream so it seems

   C   Bb         C           F
I was never much good at goodbye

    F              F/A         Bb        Bb/D   F 
And all this could be such a dream so it seems

C      Bb         C           F (Riff 1)
I was never much good at goodbye

     F (Riff 1)
Goodbye         Goodbye (Spoken)


Outro:Repeat ad nauseum


E-------(1)-------------1--------1----------------
B--(1)---------------1-----3--1-----3--2----------
G--------------0--2-----------------------3--1--2-
D--------3--3-----------------------------3--0--3-
A-----------------------------------------5--2--3-
E-------------------------------------------------
   Good-bye
Comments