Night Ranger - Dont Tell Me You Love Me Chords & Tabs

 

Dont Tell Me You Love Me Chords & Tabs

Night Ranger Chords & Tabs

Version: 1 Type: Bass Tab

Dont Tell Me You Love Me Bass Tab

   
SONG:DON'T TELL ME YOU LOVE ME
ARTIST:NIGHT RANGER
[ Tab from: http://www.guitartabs.cc/tabs/n/night_ranger/dont_tell_me_you_love_me_btab.html ]
                                                                 
 INTRO 
G-----|-----|-----|-----|---|-----------------|-----------------|
D-----|-----|-----|-----|---|-----------------|-----------------|
A-----|-----|-----|-----|---|-----------------|-----------------|
E---2-|-2-2-|-2-2-|-2-2-|-2-|-2-2-2-2-2-2-2-2-|-2-2-2-2-2-2-2-2-|
                                                                 
                                                                           
                                       "A"
G-------------------|-----------------|-----------------|-----------------|
D-------------------|---------2-------|-----------------|-----------------|
A-------------------|-----------4-2-0-|-----------------|-----------------|
E---2-2-2-2-2-2-2-2-|-2-2-2-2---------|-2-2-2-2-2-2-2-2-|-2-2-2-2-2-2-2-2-|
                                                                           
                                           
    
G-------------------|---------2-------|---|
D-------------------|-----2-4---4-2---|---|
A-------------------|---4-----------4-|-0-|
E---2-2-2-2-2-2-2-2-|-2---------------|---|
                                           
                                                                           
 VERSE 
G-------------------|-----------------|-----------------|-----------------|
D-------------------|-----------------|-----------------|-----------------|
A---0-0-0-0-0-0-0-0-|-0-0-0-0-0-0-0-0-|-----------------|-----------------|
E-------------------|-----------------|-2-2-2-2-2-2-2-2-|-2-2-2-2-2-2-2-2-|
                                                                           
                                                                               
    
G-------------------|-----------------|---|-----------------|-----------------|
D-------------------|-----------------|---|-----------------|-----------------|
A-------------------|---------4-2-0-0-|-0-|-0-0-0-0-0-0-0-0-|-0-0-0-0-0-0-0-0-|
E---2-2-2-2-2-2-2-2-|-2-2-2-2---------|---|-----------------|-----------------|
                                                                               
                                                                           
   
G-------------------|-----------------|-----------------|-----------------|
D-------------------|-----------------|-----------------|-----------------|
A-------------------|-----------------|-----------------|-----------------|
E---2-2-2-2-2-2-2-2-|-2-2-2-2-2-2-2-2-|-2-2-2-2-2-2-2-2-|-2-2-2-2-2-2-2-2-|
                                                                           
                                                                              
  PRE CHORUS             CHORUS/DON'T TELL ME YOU LOVE ME
G-----|-----|---|---|---|----|---|---|---|-----------------|-----------------|
D---0-|-2-0-|---|---|-0-|*---|-0-|---|---|-0-0-0-0-0-0-0-0-|-----------------|
A-----|-----|-4-|-2-|---|*---|---|---|-4-|-----------------|-0-0-0-0-0-0-0-0-|
E-----|-----|---|---|---|--2-|---|-0-|---|-----------------|-----------------|
                                                                              
                        
       CHORUS END  2X
G-------------------- 
D-------------------*|   THEN GO TO "A" AND REPEAT ALL
A---2-2-2-2-2-2-2-2-*|
E--------------------|
                        
                                                                              
    LEAD STARTS 
G---|------------------|-----------------|-----------------|-----------------|
D---|*-----------------|-----------------|-0-0-0-0-0-0-0-0-|-0-0-0-0-0-0-0-0-|
A---|*-----------------|-----------------|-----------------|-----------------|
E---|--2-2-2-2-2-2-2-2-|-2-2-2-2-2-2-2-2-|-----------------|-----------------|
                                                                              
                                                                           
   
G-------------------|-----------------|-----------------|-----------------|
D---2-2-2-2-2-2-2-2-|-2-2-2-2-2-2-2-2-|-----------------|-----------------|
A-------------------|-----------------|-4-4-4-4-4-4-4-4-|-4-4-4-4-4-4-4-4-|
E-------------------|-----------------|-----------------|-----------------|
                                                                           
                                                                           
     
G-------------------|-----------------|-----------------|-----------------|
D---0-0-0-0-0-0-0-0-|-0-0-0-0-0-0-0-0-|-----------------|-----------------|
A-------------------|-----------------|-0-0-0-0-0-0-0-0-|-0-0-0-0-0-0-0-0-|
E-------------------|-----------------|-----------------|-----------------|
                                                                           
                                                                              
                                       DON'T PLAY THIS ON 2ND TIME      2X                            
G-------------------|-----------------|-----------------|------------------|
D-------------------|-----------------|-----------------|-----------------*|
A---2-2-2-2-2-2-2-2-|-2-2-2-2-2-2-2-2-|-----------------|-----------------*|
E-------------------|-----------------|-3-3-3-3-3-3-3-3-|-3-3-3-3-3-3-3-3--|
                                                                              
                                   
             END OF LEAD
G-----------|---------------|---
D-----------|---------------|---|    VOCALS/NO BASS
A-----------|-------0-------|---|
E---3-3-3-3-|-0-2-3---0-2-3-|-2^|
                                   
                                                                              
     OUTRO 
G---|------------------|-----------------|-----------------|-----------------|
D---|*-----------------|-0-0-0-0-0-0-0-0-|-2-2-2-2-2-2-2-2-|-----------------|
A---|*-----------------|-----------------|-----------------|-4-4-4-4-4-4-4-4-|
E---|--2-2-2-2-2-2-2-2-|-----------------|-----------------|-----------------|
                                                                              
                                                             
                                                       5X
G-------------------|-----------------|-------------------|
D---0-0-0-0-0-0-0-0-|-----------------|------------------*|
A-------------------|-0-0-0-0-0-0-0-0-|-2-2-2-2-2-2-2-2--*|
E-------------------|-----------------|-------------------|
                                                             
                                       
ENDING                           END
G---0-----|---|-----|-----|-----|-----|
D-----0---|---|-----|-----|-----|-----|
A---------|---|-----|-----|-----|-----|
E-------3-|-2-|-2-2-|-2-2-|-2-2-|-2-2-|