Nigel 6 - Poop Chords & Tabs

 

Poop Chords & Tabs

Nigel 6 Chords & Tabs

Version: 2 Type: Bass Tab 0 ratings
1 star 2 stars 3 stars 4 stars 5 stars
comments

Poop Bass Tab

BAND: NIGEL 6
SONG: POOP
ALBUM: SKARMAGEDDON
TABBED BY: BEN MEYER benm@oakweb.com




INTRO:

G:-------------------3-4-5-5-
D:------------3-4-5----------
A:-----3-4-5-----------------
E:-3-5-----------------------


VERSE:
[ Tab from: http://www.guitartabs.cc/tabs/n/nigel_6/poop_btab_ver_2.html ]
G:-----5-4-3------------------5-3---------5-4-3---------5-3---------
D:------------5-4-3-------3-5-----5-3------------5-4-3------5-3-----
A:-------------------5-3----------------3-----------------------5-3-
E:-3----------------------------------------------------------------


CHORUS:

G:---------------3-5-
D:-----------3-5-----
A:---3-5-3-5---------
E:-3-----------------


THE WHOLE IS NOT FULLY DONE YET BUT IT WILL BE SOON. IT'S A VERY
COOL SONG BUT IT'S PLAYED REALLY FAST.
Comments