Niet - Depresija Chords & Tabs

 

Depresija Chords & Tabs

Niet Chords & Tabs

Version: 1 Type: Bass Tab 0 ratings
1 star 2 stars 3 stars 4 stars 5 stars
comments

Depresija Bass Tab

-------------------------------------------------------------------------------
			     DEPRESIJA - Niet
-------------------------------------------------------------------------------
Well, NiET is a slovenian punk band, that's no longer exists, because of the death of a
band member...but they made a big influence on the slovenian punk scene and made many
legendary songs.


Tabbed By : Alien
e-mail: whatsername@email.si

Tuning: Standard (EADG)

[NOTE: you play it with a pick, except if you have extremly fast fingers.]
[ Tab from: http://www.guitartabs.cc/tabs/n/niet/depresija_btab.html ]
Play this five times:
G|---------------------------------------------|
D|------------3--3-33p5------------------------|
A|--0--0-0000-----------3--3-33p5---0--0-000---|
E|---------------------------------------------|

Then, there's a faster rhythm. 
G|--------------------------------------------------------------|
D|-----------------3-333-3-333-35-------------------------------|
A|--0-000-0-000-0-0---------------3-333-3-333-35-0-000-0-000-0--|
E|--------------------------------------------------------------|

And in the end, you play:
G|------------------------------------------------------|
D|-------------------3-333-3-333-35---------------------|
A|---0-000-0-000-0-0----------------3-333-3-333-35-0~~~~|
E|------------------------------------------------------|

That's it, you just play the faster rhythm throughout the song. Any comments, email me.
Comments