Nidji - Heaven Chords & Tabs

 

Nidji Chords & Tabs

Version: 1 Type: Tab 0 ratings
1 star 2 stars 3 stars 4 stars 5 stars
comments

Heaven Tab

   
-------------------------------------------------------------------------------
			Heaven - Nidji
-------------------------------------------------------------------------------
Tabbed by: the_db
Email: com_4de@hotmail.com

Tuning:standard

intro:
lead:
e|-------------------------------------------------|
B|-------------------------------------------------|
G|---5-7-5-7----5-7-5-7----5-7-5-7----5-7-5-7------| 2x
D|-7----------5----------3----------5--------------|
A|-------------------------------------------------|
E|-------------------------------------------------|

rhythm:
e|---------------------------------------------|
B|---------------------------------------------|
G|---------------------------------------------|
D|--7--------5--------3-------5------6---------| 2x
A|--7-(8x)---5-(8x)---3-(8X)--5-(4x)-6-(4x)----|
E|--5--------3--------1-------3------4---------|
  

verse 1:

lead & rhythm:
e|---------------------------------------------|
B|---------------------------------------------|
G|---------------------------------------------|
D|--7--------5--------3-------5----------------|4x
A|--7-(4x)---5-(4x)---3-(4X)--5-(4x)-----------|
E|--5--------3--------1-------3----------------|
    .        .        .       .

chorus:

lead:
e|--7------8--------7-----------------------|
B|----8------8---------8--------------------|
G|------7-------7---------------------------|(15x)
D|------------------------------------------|
A|------------------------------------------|
E|------------------------------------------|

e|-----------|
B|-----------|
G|-----------|
D|-5--5------|
A|-5--5------|
E|-3--3------|

e|------------------------------------|
B|------------------------------------|
G|------------------------------------|
D|-3-------5-------7--------5---------| 2x
A|-3-(8x)--5-(8x)--7-(8x)---5-(8x)----|
E|-1-------3-------5--------3---------|
   .       .       .        .

e|------------------------------------|
B|------------------------------------|
G|------------------------------------|
D|-3-------5-------7--------5---------| 1x
A|-3-(8x)--5-(8x)--7-(8x)---5-(8x)----|
E|-1-------3-------5--------3---------|
   
interlude:

lead:
e|--8-8-8--10--7-7-7-7---------------13-12-12--------10-----|
B|----------------------8--10-10-10------------12-12--------|
G|----------------------------------------------------------| 2x
D|----------------------------------------------------------|
A|----------------------------------------------------------|
E|----------------------------------------------------------|

rhythm:
e|---------------------------------------------|
B|---------------------------------------------|
G|---------------------------------------------|
D|--7--------5--------3-------5------6---------| 2x
A|--7-(8x)---5-(8x)---3-(8X)--5-(4x)-6-(4x)----|
E|--5--------3--------1-------3------4---------|

verse 2: 
repeat verse 1

repeat chorus:

solo:
[ Tab from: http://www.guitartabs.cc/tabs/n/nidji/heaven_tab.html ]
lead:
e|---------------------------------------------------------------------------------|
B|---------------------------------------------------------------------------------|
G|--9+---9--5h7-5-----5--7b9---5--7--5------------7--9----12--14---12--14--12--14--|
D|-----------------7---------------------7--5--7-----------------------------------|
A|---------------------------------------------------------------------------------|
E|---------------------------------------------------------------------------------|

e|--------------------------------------------------------------------------|
B|-----13--15b17---13--15--13-------13--15b17---13-15-13-----13--15---------|
G|--14--------------------------14-------------------------14---------------|
D|--------------------------------------------------------------------------|
A|--------------------------------------------------------------------------|
E|--------------------------------------------------------------------------|

e|--------------------------------------------------------------------------|
B|-15b17--1313--15b17--1313----15b17--1313--15b17-1313--15b17-13-15-13------|
G|----------------------------------------------------------------------14--|
D|--------------------------------------------------------------------------|
A|--------------------------------------------------------------------------|
E|--------------------------------------------------------------------------|

play fast:
e|----------------------------------------------------------|
B|----------------------------------------------------------|
G|-14--12-------14--12--14--12-------14--12--14--12---------| 3x
D|-------14--------------------14-------------------14------|
A|----------------------------------------------------------|
E|----------------------------------------------------------|

e|------------------------------------------|
B|------------------------------------------|
G|------------------------------------------|
D|-----------------------------10-9---------|
A|-12-10--12-10--12-10--12-10-------12--12--|
E|------------------------------------------|

e|---------------------------------------------------|
B|-----------------------------------8888-10101010---|
G|--------------------9999-7777-9999-----------------|
D|-7777-9999-10101010--------------------------------|
A|---------------------------------------------------|
E|---------------------------------------------------|

e|---------------------------------------------15151515-17171717-19191919-20~--|
B|-10101010-12121212-13131313-15151515-17171717--------------------------------|
G|-----------------------------------------------------------------------------|
D|-----------------------------------------------------------------------------|
A|-----------------------------------------------------------------------------|
E|-----------------------------------------------------------------------------|

repeat chorus:

outro:
e|-----------------------------------------------------|
B|-----------------------------------------------------|
G|---5-7-5-7----5-7-5-7----5-7-5-7----5-7-5-7----------| 2x
D|-7----------5----------3----------5----------7-7-7---|
A|-----------------------------------------------------|
E|-----------------------------------------------------|


| /  slide up
| \  slide down
| h  hammer-on
| p  pull-off
| ~  vibrato
| +  harmonic
| x  Mute note
===============================================================================
Comments