Nico - These Days Chords & Tabs

 

These Days Chords & Tabs

Nico Chords & Tabs

Version: 1 Type: Tab 0 ratings
1 star 2 stars 3 stars 4 stars 5 stars
comments

These Days Tab

   
-------------------------------------------------------------------------------
			     These Days - Nico
-------------------------------------------------------------------------------

Tabbed by: Jesse Benedick
Email: Cartguysam@aol.com

Tuning: Standard with a capo on the 5th fret. All finger picking.
[ Tab from: http://www.guitartabs.cc/tabs/n/nico/these_days_tab.html ]
e|-----------------------------------------------5---------------------------|
B|-6-------6-------6-------6-------------------------------------------------|
G|-----5-------5-------5-------5-------7---7---7-----------------------------|
D|---7-------7-------7-------7-------8---------------------------------------|
A|-8-----7-------5-----------------------------------------------------------|
E|-----------------------8-------5-6-----6---6-------------------------------|
 Repeat a few times
e|----------5----------------------------------------------------------------|
B|--6---------6--------------------------------------------------------------|
G|------5--------------------------------------------------------------------|
D|----7---7------------------------------------------------------------------|
A|--8------------------------------------------------------------------------|
E|---------------------------------------------------------------------------|
 Opening, then repeat the pattern above

| /  slide up
| \  slide down
| h  hammer-on
| p  pull-off
| ~  vibrato
| +  harmonic
| x  Mute note

===============================================================================
Comments