Nickelback - Worthy To Say Chords & Tabs

 

Worthy To Say Chords & Tabs

Nickelback Chords & Tabs

Version: 1 Type: Tab 0 ratings
1 star 2 stars 3 stars 4 stars 5 stars
comments

Worthy To Say Tab

--------------------------------------------------------------------------
			     Worthy to say - nickel back
		   This is in standard tuning
--------------------------------------------------------------------------

By: Wheres the love
during the verse there is no guitar except for he picks around a bit other then
that  its just drums .in the pre chorus and chours is where there is guitar 

wqhen he says how bout i stay and you run away and he repeats that for a bit


NOTE: these are not strum patterns just cords
this is close to what the intro is but ther are two guitars so its hard to tell. 
there is also a third guitar scratching (stroking the strings muted)
in the background
 

e|----------------------------------9p8--------------------------------------|
B|------------------8--------8-----------7s9---------------------------------|
G|----------7---7------7--7--------------------------------------------------|
D|---------------------------------------------------------------------------|
A|---------------------------------------------------------------------------|
E|---------------------------------------------------------------------------|


e|---------------------------------------------------------------------------|
B|---------------------------------------------------------------------------|
G|-----5--------7------------------------------------------------------------|
D|-----5--------7-----7------------------------------------------------------|
A|-----3--------5-----7------------------------------------------------------|
E|--------------------5------------------------------------------------------|
[ Tab from: http://www.guitartabs.cc/tabs/n/nickelback/worthy_to_say_tab.html ]
pre-chorus
then at "somebodys gonna do it again"

e|---------------------------------------------------------------------------|
B|---------------------------------------------------------------------------|
G|-------5----------7--------5-------7--------5-----7------------------------|
D|-------5----------7--------5-------7--------5-----7------------------------|
A|-------3----------5--------3-------5--------3-----5------------------------|
E|---------------------------------------------------------------------------|
 the chorus is as follows 


e|---------------------------------------------------------------------------|
B|---------------------------------------------------------------------------|
G|--------------9----7------------9----7------------7---5---------5---3------|
D|--7--------7--9----7----7---7---9----7-----7---7--7---5---5-----5---3------|
A|--7--------7--7----5----7---7---7----5-----7---7--5---3---5-----3---1------|
E|--5----8---5------------5-8-5--------------5-8-5----------3----------------|

for the very last verst when the drums stop and its just him singing the guitar 
is just scratching the drum pattern

2nd NOTE: in the back-ground during the pre-chorus there is an acoustic guitar 
"soloing" and doing little fills underneath everything but it is to faint to pick 
up just what he's doing the goes for the chorus too, you probobly wont hear unless 
you listen for it. "i ll tab them out later if I can figure out how to make it a 
little louder" i hope that you like my tab and where you see the 8's in the chorus 
its just a single note- not a chord listen to the song and you can hear it being done.
thats all folks, show my tab some love and itl sound right.
Comments