Nickelback - Woke Up This Morning Chords & Tabs

 

Woke Up This Morning Chords & Tabs

Nickelback Chords & Tabs

Version: 4 Type: Tab 0 ratings
1 star 2 stars 3 stars 4 stars 5 stars
comments

Woke Up This Morning Tab

Niclelback - Woke Up This Morning

TABBED BY DUDEMAN


HERE IS THE RIGHT WAY TO PLAY IT


INTRO: HEAVY DISTORTION
D-------------------------------------------------------------------|
A-------------------------------------------------------------------|
F------7---7------7---7-----5-5-----7---7------7---7-----10-10------|
C--------4----------4-------5-5-------4----------4-------10-10------|
G--5-5--------5-5-------5-5-3-3-5-5--------5-5-------5-5-8--8-------|
C-------------------------------------------------------------------|


D-------------------------------------------------------------------|
A-------------------------------------------------------------------|
F------7---7------7---7-----5-5-----7---7------XX-5-5---------------|
C--------4----------4-------5-5-------4--------XX-5-5-XX-3-3--------|
G--5-5--------5-5-------5-5-3-3-5-5--------5-5-XX-3-3-XX-3-3--------|
C-----------------------------------------------------XX-3-3--------|

PREVERSE
D-------------------------------------------------------------------|
A--------------------------------------------------------15/7-------|
F------7---7------7---7-----5/3----7---7------7---7------15/7-------|
C--------4----------4-------5/3------4----------4--------13/5-------|
G--5-5--------5-5-------5-X-3/1--5--------5-5--------5-X------------|
C-------------------------------------------------------------------|


D-------------------------------------------------------------------|
A-------------------------------------------------------------------|
F------7---7------7---7-----5/3-----7---7------XX-5-5---------------|
C--------4----------4-------5/3-------4--------XX-5-5-XX-3-3--------|
G--5-5--------5-5-------5-X-3/1-5-5--------5-5-XX-3-3-XX-3-3--------|
C-----------------------------------------------------XX-3-3--------|

VERSE
D-------------------------------------------------------------------|
A-------------------------------------------------------------------|
F------7---7------7---7-----5-5-----7---7------7---7-5-5-7-7--------|
C--------4----------4-------5-5-------4----------4---5-5-7-7--------|
G--5-5--------5-5-------5-5-3-3-5-5--------5-5-------3-3-5-5--------|
C-------------------------------------------------------------------|


D-------------------------------------------------------------------|
A-------------------------------------------------------------------|
F--------------------------2-2--------------------------------------|
C--------------------------0-0--------------------------------------|
G--------------------------0-0----------------------X-X-X-----------|
C--------------------------0-0----------------------X-X-X-5/3-------|
[ Tab from: http://www.guitartabs.cc/tabs/n/nickelback/woke_up_this_morning_tab_ver_4.html ]
BRIDGE
D-------------------------------------------------------------------|
A----------------------6-3H5----------------------6-3H5-------------|
F------7---7-------5H7------------7---7-------5H7-------------------|
C--------4--------------------------4-------------------------------|
G--5-5--------5-5-------------5-5--------5-5------------------------|
C-------------------------------------------------------------------|


D-------------------------------------------------------------------|
A----------------------6-3H5----------------------6-3H5-------------|
F------7---7-------5H7------------7---7-------5H7-------------------|
C--------4--------------------------4-------------------------------|
G--5-5--------5-5-------------5-5--------5-5------------------------|
C-------------------------------------------------------------------|


PRECHORUS
GUITAR 1 (CLEAN W/TREMELO)
D-------------------------------------------------------------------|
A------3---3---3---------5---5-6-5----------------------------------|
F--------------------------------------7-7-7-7-7-7-7-7-7-7-7-7-7----|
C----3---3---3---3/5---5---5-------5/7-7-7-7-7-7-7-7-7-7-7-7-7-7----|
G--1-----------------3-----------------5-5-5-5-5-5-5-5-5-5-5-5-5----|
C-------------------------------------------------------------------|


GUITAR 2
D--------------------------------------------------------------------|
A--------------------------------------------------------------------|
F-3-3-3-3-3-3-3-3-5-5-5-5-5-5-5-5-7-7-7-7-7-7-7-7-7-7-7-7-7-7-7------|
C-3-3-3-3-3-3-3-3-5-5-5-5-5-5-5-5-7-7-7-7-7-7-7-7-7-7-7-7-7-7-7------|
G-1-1-1-1-1-1-1-1-3-3-3-3-3-3-3-3-5-5-5-5-5-5-5-5-5-5-5-5-5-5-5------|
C---------------------------------------------------------------/12\-|


CHORUS
3X
D-------------------------------------------|
A-------------------------------------------|
Fo-----------------------------------------o|
Co---------------------------8-8-8--3--3-3-o|
G---------7-8-9--9----9---9--8-8-8--3--3-3--|
C--0--0-0-0-0-0--0-0--0-0-0--8-8-8--3--3-3--|


D-------------------------------------------------------------------|
A-------------------------------------------------------------------|
F-------------------------------------------------------------------|
C--8-8-8-3-3-3-8-8-8-3-3-3-X-X-5----3-------------------------------|
G--8-8-8-3-3-3-8-8-8-3-3-3-X-X-5----3-------------------------------|
C--8-8-8-3-3-3-8-8-8-3-3-3-X-X-5----3-------------------------------|

SOLO
2X
D--------------------------------------------------------------------|
A--------------------------------------------------------------------|
Fo-------------------------------------------------------------------|o
Co-------------------------------------------------------------------|o
G---------7-8-9--5/7-5-3---------7-8-9-------------------------------|
C--0--0-0-----------------0--0-0-------5/7-5-3-----------------------|

2X
D--------------------------------------------------------------------|
A--------------------------------------------------------------------|
Fo-------------------------------------------------------------------|o
Co-------------------------------------------------------------------|o
G---------7-8-9--5/7-3-5---------7-8-9-------------------------------|
C--0--0-0-----------------0--0-0-------5/7-3-5-----------------------|


ORDER OF THINGS

INTRO
PREVERSE
VERSE
BRIDGE
PRECHORUS
CHORUS
PREVERSE
VERSE
BRIDGE
PRECHORUS
CHORUS
PREVERSE
SOLO
PRECHORUS
CHORUS
PREVERSE
Comments