Nickelback - Where Do I Hide Chords & Tabs

 

Where Do I Hide Chords & Tabs

Nickelback Chords & Tabs

Version: 11 Type: Tab 0 ratings
1 star 2 stars 3 stars 4 stars 5 stars
comments

Where Do I Hide Tab

Album  : Silver Side Up (2001)
Tab    : Abd el rahman
E-mail : ZeroCool_90_7@hotmail.com

I'm only an egyptian boy so don't expect the best from me i think it's not bad for a Boy 
who's only 12 yrs old, maybe my tab sucks coz it's my 1st time 2 tab, i only tabbed a lil

part form the solo, so if there are any corrections pls E-mail me, i hope u like it.



Intro :
=======


E|-------------------------------------------------|
B|-------------------------------------------------|
G|-------------------------------------------------|
D|-------------------------------------------------|
A|-------------------------8-6-8-10-8/-6-\3-3------|
E|---8-88/-6-\11-11-11-----------------------------|


E|-------------------------------------------------|
B|-------------------------------------------------|
G|-------------------------------------------------|
D|-------------------------------------------------|
A|-------------------------------------------------|
E|---8-88/-6-\11-11-11----6-6----6-6-6-------------|


Verse 1:
========
                     

E|-------------------------------------------------|
B|-------------------------------------------------|
G|-------------------------------------------------|      2X
D|-------------------------------------------------|  
A|-----------------8-6-8-10-8/-6-\3-3--------------|
E|----8-6-8-66-------------------------------------|


Verse 2:
========


E|--------------------------|
B|--------------------------|
G|--------------------------|     12X
D|--------------------------|  
A|----------6---------------|
E|----8-6-8---8-6-8---------|


Verse 1:
========
                     

E|-------------------------------------------------|
B|-------------------------------------------------|
G|-------------------------------------------------|      2X
D|-------------------------------------------------|  
A|-----------------8-6-8-10-8/-6-\3-3--------------|
E|----8-6-8-66-------------------------------------|


Verse 2:
========


E|--------------------------|
B|--------------------------|
G|--------------------------|     12X
D|--------------------------|  
A|----------6---------------|
E|----8-6-8---8-6-8---------|


Verse 1:
========
                     
[ Tab from: http://www.guitartabs.cc/tabs/n/nickelback/where_do_i_hide_tab_ver_11.html ]
E|-------------------------------------------------|
B|-------------------------------------------------|
G|-------------------------------------------------|      4X
D|-------------------------------------------------|  
A|-----------------8-6-8-10-8/-6-\3-3--------------|
E|----8-6-8-66-------------------------------------|


Palm Mute:
==========

E|--------------------------|
B|--------------------------|
G|--------------------------|      2X
D|--------------------------|
A|-------6-----6-----6------|
E|----8-----8-----8------8--|


Intro :
=======


E|-------------------------------------------------|
B|-------------------------------------------------|
G|-------------------------------------------------|
D|-------------------------------------------------|
A|-------------------------8-6-8-10-8/-6-\3-3------|
E|---8-88/-6-\11-11-11-----------------------------|


E|-------------------------------------------------|
B|-------------------------------------------------|
G|-------------------------------------------------|
D|-------------------------------------------------|
A|-------------------------------------------------|
E|---8-88/-6-\11-11-11----6-6----6-6-6-------------|


Solo :
======


E|-------------------------------------------------------------------|
B|-------------------------------------------------------------------|
G|-------------------------------------------------------------------|
D|----7~-9-12-14~--14-14-12-14-12----12---------9--------7-----------|
A|---------------------------------------14-12-----12-9-----9-7\5----|
E|-------------------------------------------------------------------|


E|-------------------------------------------------------------------|
B|-------------------------------------------------------------------|
G|-------------------------------------------------------------------|
D|-------------------------------------------------------------------|
A|----5-7-9-12-14-16-17-14-17----------------------------------------|
E|-------------------------------------------------------------------|


Sorry That's all wut i've got from it


Drums Play :
============


Verse 2:
========


E|--------------------------|
B|--------------------------|
G|--------------------------|     4X
D|--------------------------|  
A|----------6---------------|
E|----8-6-8---8-6-8---------|


Verse 1:
========
                     

E|-------------------------------------------------|
B|-------------------------------------------------|
G|-------------------------------------------------|      4X
D|-------------------------------------------------|  
A|-----------------8-6-8-10-8/-6-\3-3--------------|
E|----8-6-8-66-------------------------------------|




OK that's wut i'v got, u may think that it's all solo but i like it so please rate!!.
Comments