Nickelback - Where Do I Hide Chords & Tabs

 

Where Do I Hide Chords & Tabs

Nickelback Chords & Tabs

Version: 1 Type: Tab 1 rating
1 star 2 stars 3 stars 4 stars 5 stars
comments

Where Do I Hide Tab


Artist    : Nickelback
song      : Where do i hide
tabbed by : christian strowitzki (acoustic21)
tuning    : standart


intro
---------------------------------------------------------
---------------------------------------------------------
---------------------------------------------------------
---------------------------------------------------------
------------5-5-5-------------7--5-7b9r7--5--------------
----7-7-5-7----------x-x-x------------------7-7---x-x----

---------------------------------------------------
---------------------------------------------------
---------------------------------------------------
------------------------7-7---7-7-7----------------
------------5-5-5-------7-7---7-7-7----------------
----7-7-5-7--------x-x--5-5---5-5-5----------------

-------------------------------------------------
-------------------------------------------------
------------------------9--7--9-9--7-------------
----9--9-9-9--7-7-7-----9--7--9-9--7-9-9---------
----9--9-9-9--7-7-7-x-x-7--5--7-7--5-9-9--x-x----
----7--7-7-7--5-5-5-x-x--------------7-7--x-x----

-------------------------------------------------
-------------------------------------------------
------------------------9--7--9-9--7-------------
----9--9-9-9--7-7-7-----9--7--9-9--7-9-9---------
----9--9-9-9--7-7-7-x-x-7--5--7-7--5-9-9--x-x----
----7--7-7-7--5-5-5-x-x--------------7-7--x-x----


pre verse
-----------------------------------------------
-----------------------------------------------
-----------------------------------------------
-----------------------------------------------
----------5----------------5-------------------
----7-5-7---7-5-7----7-5-7---7-5-7--7-7-7-7----

-------------------------------------------
-------------------------------------------
--------------------------------------7----
--------------------------------------7----
----------5----------------5----------5----
----7-5-7---7-5-7----7-5-7---7-5-7---------


verse
-----------------------------------------------
-----------------------------------------------
-----------------------------------------------
-----------------------------------------------
----------5----------------5-------------------
----7-5-7---7-5-7----7-5-7---7-5-7-------------

-------------------------------------------
-------------------------------------------
--------------------------------------7----
--------------------------------------7----
----------5----------------5----------5----
----7-5-7---7-5-7----7-5-7---7-5-7---------
[ Tab from: http://www.guitartabs.cc/tabs/n/nickelback/where_do_i_hide_tab.html ]
-------------------------------------------------------------------
-------------------------------------------------------------------
-------------------------------------------------------------------
-------------------------------------------------------------------
----------5---------------------------------5----------------------
----7-5-7---7-5-7---7-7-7-7-7-7-7-7---7-5-7---7-5-7---7-7---7-7----

---------------------------------------------------------------
---------------------------------------------------------------
----------------------------------------------------------7----
----------------------------------------------------------7----
----------5---------------------------------5-------------5----
----7-5-7---7-5-7---7-7-7-7-7-7-7-7---7-5-7---7-5-7--10/-------


chorus
-------------------------------------------------
-------------------------------------------------
------------------------9--7--9-9--7-------------
----9--9-9-9--7-7-7-----9--7--9-9--7-9-9---------
----9--9-9-9--7-7-7-x-x-7--5--7-7--5-9-9--x-x----
----7--7-7-7--5-5-5-x-x--------------7-7--x-x----


interlude
-----------------------------------------
-----------------------------------------
----------------------5------------------
----------------------5-9----------------
----7-5----4x then--7-3-9----------2x----
--------7---------------7----------------


solo
------------------------------------------------------
------------------------------------------------------
------------------------------------------------------
----7-9-12-14---12-14-----14-12---14-12-----12p9-9----
------------------------------------------------------
------------------------------------------------------

---------------------------------------------------------
---------------------------------------------------------
----------------------------7-----------7----------------
----9-7-----------------7-9---9-7-9-------9-7-9--9/14----
--------9-7--5-7-5--9h7----------------------------------
---------------------------------------------------------

------------------------------7------10-10-10----10----12----12-12-12-10-12/14--10----
----/7-10--x-x-/7-10---7-10-7---10------------12----12----12--------------------------
--------------------------------------------------------------------------------------
--------------------------------------------------------------------------------------
--------------------------------------------------------------------------------------
--------------------------------------------------------------------------------------

---------------------------------------------------------------------
---------------------------------------------------------------------
----11-11--14p11-11-11-11-9-7-----7-----9-7-----9-------9---7-9-7----
--------------------------------9---9-------9-----7------------------
----------------------------------------------------9----------------
---------------------------------------------------------------------

-----------------------------------
-----------------------------------
------9-7---7-----7----------------
----------9---9-----9-7-9--9/12----
-----------------------------------
-----------------------------------
Comments