Nickelback - Too Bad Chords & Tabs

 

Too Bad Chords & Tabs

Nickelback Chords & Tabs

Version: 3 Type: Tab 0 ratings
1 star 2 stars 3 stars 4 stars 5 stars
comments

Too Bad Tab

   
#----------------------------------PLEASE NOTE---------------------------------#
#This file is the author's own work and represents their interpretation of the #
#song. You may only use this file for private study, scholarship, or research. #
#------------------------------------------------------------------------------##

Nickelback- Silver Side UP
Too Bad
Transcribed by Aaron LeMay

All guitars tuned down one whole step with Drop D tuning

6) = C          3) = F
5) = G          2) = A
4) = C          1) = D


Repeat 3 times for each verse
---------------------------------------------------------------------------------------------------------
---------------------------------------------------------------------------------------------------------
---------------------------------------------------------------------------------------------------------
---7-------7-------7-------7-------7-------7-------7-------7------7-------7-------7-------7--------
---------------------------------------------------------------------------------------------------------
-------0-------0-------0-------0-------0-------0-------0-------0------0-------0-------0--------3---

---------------------------------------------------------------------------------------------------------
---------------------------------------------------------------------------------------------------------
---------------------------------------------------------------------------------------------------------
---7-------7-------7-------7-------7-------7-------7-------7------7-------7-------7-------7--------
---------------------------------------------------------------------------------------------------------
-------3-------3-------3-------3-------5-------5-------5-------5------5-------5-------5--------5---


It’s too bad…
--------------------------
--------------------------
--------------------------
---X---X-----------------
--------------------------
-----------X--------------

…it’s stupid
---------------------------------------------------------------------------------------------------------------
----------------------------------------------------------------------------------------------------------------
--------------------7------------------------------------------------------3-----------------------------------
--8---8---8---8---8--------8--------3-------------3---3---3---3-------3-----------------------------------
--8---8---8---8---8---8---8---8----3----3---3---3---3---3---3---3---3--5---5---3---5---5---5---3----
--8---8---8---8---8---8---8---8----3----3---3---3---3---3---3---3---3--5---5---3---5---5---5---3----

It’s too bad…
------------------------------------
------------------------------------
3-----------------------------------
3-----------------------------------
3---5---5---3---5---5---5---3---
3---5---5---3---5---5---5---3---


[ Tab from: http://www.guitartabs.cc/tabs/n/nickelback/too_bad_tab_ver_3.html ]
…we had no time…
----------------------------------------------------------------------------------------------------------------
----------------------------------------------------------------------------------------------------------------
--------------------7------------------------------------------------------3-----------------------------------
--8---8---8---8---8--------8--------3-------------3---3---3---3-------3-----------------------------------
--8---8---8---8---8---8---8---8----3----3---3---3---3---3---3---3---3--5---5---3---5---5---5---3----
--8---8---8---8---8---8---8---8----3----3---3---3---3---3---3---3---3--5---5---3---5---5---5---3----

Let’s talk.__
----------------------------------------------------------------
----------------------------------------------------------------
----------------------------------------------------------------
----------------------------------------------------------------
3---5---5---3---3---5---5------------------------------------
3---5---5---3---3---5---5---0-----0----------2-------/3----

As far as the solo, there are a couple different guitars playing…so I have not figured that part out.

Here is the ending solo (outro) though…listen to the solo and you can figure the hammer on  and bend part of it. 

No time…
--------------------------------------------------------------------------------------------------------------
------------------------------------^------------------------------------------------------------------------
-------------------12-----12---10--12-~~~~~~~~12-----12---10--12--10-------------------------
----/12~~~~~---------------------------------------------------------------------12---12~~~~~~--
--------------------------------------------------------------------------------------------------------------
--------------------------------------------------------------------------------------------------------------

-------^-----------10-------10-----^-----------10-------10-----^-----------10-------
----13---10------------10-------13---10------------10-------13---10-----------------
---------------13----------------------------13----------------------------13------------
--------------------------------------------------------------------------------------------
--------------------------------------------------------------------------------------------
--------------------------------------------------------------------------------------------

------^--------------------------------------------
---13---15~~~~------------------^------------
----------------------12----12---10---12--------
----------------------------------------------------
----------------------------------------------------
----------------------------------------------------

----------------------------------------------------------------------------------------
----------------------------------------------------------------------------------------
-------------------12-----12---10—12-----10-------7~~~~~~~~~~~--------
----------------------------------------------------------------------------------------
----------------------------------------------------------------------------------------
----------------------------------------------------------------------------------------
Comments