Nickelback - Too Bad Chords & Tabs

 

Too Bad Chords & Tabs

Nickelback Chords & Tabs

Version: 1 Type: Tab 0 ratings
1 star 2 stars 3 stars 4 stars 5 stars
comments

Too Bad Tab

   
Song: Too Bad
Band: Nickelback
From: Silver Side Up
By:   Adam Urbz
Mail: pickboy87@cs.com
Tune: Dropped D; Down One Whole Step (C,G,C,F,A,D)

  Intro/Verses: (Clean w/ Tremolo)
D|--------------------|-------------------|-------------------|
A|--------------------|-------------------|-------------------|
F|*-2---2---2---2-----|-2---2---2---2-----|-2---2---2---2----*|
C|*---0---0---0---0---|---0---0---0---0---|---0---0---0---0--*|
G|--------------------|-------------------|-------------------|
C|--------------------|-------------------|-------------------|
 
  Bass Verses: (Clean)
F|--------------------|-------------------|---------------(x3)|
C|*-------------------|-------------------|------------------*|
G|*-------------------|-------------------|------------------*|
C|--0---0-------------|-3---3-------------|-5---5-------------|
[ Tab from: http://www.guitartabs.cc/tabs/n/nickelback/too_bad_tab.html ]
F|--------------------|-------------------|-------------------|
C|*-------------------|-------------------|------------------*|
G|*-------------------|-------------------|------------------*|
C|--0---0-------------|-10--10------------|-5---5-------------|

  Chorus: (Distorted)
D|--------------------|-------------------|-----------------------(x2)|
A|--------------------|-------------------|---------------------------|
F|*-------------------|-------------------|--------------------------*|
C|*-8-8-8-8-8-8-8-8---|--3-3-3-3-3-3-3-3--|-3h5--3-3h5--3-3h5--3-3h5-*|
G|--8-8-8-8-8-8-8-8---|--3-3-3-3-3-3-3-3--|-3h5--3-3h5--3-3h5--3-3h5--|
C|--8-8-8-8-8-8-8-8---|--3-3-3-3-3-3-3-3--|-3h5--3-3h5--3-3h5--3-3h5--|

  Post-Chorus: (Clean w/ Slide)
D|--------------------|
A|--------------------|
F|--14\12----17\14----|
C|--------------------|
G|--------------------|
C|--------------------|

Sorry I don't have the solo. It's pretty hard to hear what each guitar
is playing in the two channels. Plus there's a ton of slides and
volume swells. It pretty easy to improvise a solo though.
Comments