Nickelback - Too Bad Chords & Tabs

 

Too Bad Chords & Tabs

Nickelback Chords & Tabs

Version: 2 Type: Bass Tab

Too Bad Bass Tab

   
Song: Too Bad
Tuning:drop C(C,G,C,F)
~ =let ring
\ =slide down
h =hammer on

verse
F|----------------|----------------|----------------|----------------|
C|----------------|----------------|----------------|----------------|
G|----------------|----------------|----------------|----------------|
C|------15\-------|------3-3~------|--5-5~----5-5~--|------5-3~------|

F|----------------|----------------|----------------|----------------|
C|----------------|----------------|----------------|----------------|
G|----------------|----------------|----------------|----------------|
C|------0-0~------|------3-3~------|------5-5~-5-5--|-----12-10~-----|

F|----------------|----------------|----------------|----------------|
C|----------------|----------------|----------------|----------------|
G|----------------|----------------|----------------|----------------|
C|------0-0~------|------10~-------|------5-5~~-----|-------\--------|

chorus
F|--------------------------------------||
C|--------------------------------------||
G|--------------------------------------||
C|-8888888833333333-33h5-33h5-33h5-33h5-|| x2

verse2
F|----------------|----------------|----------------|----------------|
C|----------------|----------------|----------------|----------------|
G|----------------|----------------|----------------|----------------|
C|------15\-------|------3-3~------|--5-5~----5-5~--|------5-3~------|

F|----------------|----------------|----------------|----------------|
C|----------------|----------------|----------------|----------------|
G|----------------|----------------|----------------|----------------|
C|------0-0~------|------3-3~------|--5-5~----5-5~--|------5-3~------|

F|----------------|----------------|----------------|----------------|
C|----------------|----------------|----------------|----------------|
G|----------------|----------------|----------------|----------------|
C|------0-0~------|------3-3~------|------5-5~-5-5--|-----12-10~-----|
[ Tab from: http://www.guitartabs.cc/tabs/n/nickelback/too_bad_btab_ver_2.html ]
F|----------------|----------------|----------------|----------------|
C|----------------|----------------|----------------|----------------|
G|----------------|----------------|----------------|----------------|
C|------0-0~------|------10~-------|------5-5~~-----|-------\--------|

chorus
F|--------------------------------------||
C|--------------------------------------||
G|--------------------------------------||
C|-8888888833333333-33h5-33h5-33h5-33h5-|| x4

solo
F|----------------|----------------|----------------|----------------|
C|----------------|----------------|----------------|----------------|
G|----------------|----------------|----------------|----------------|
C|------0-0~------|------3-3~------|--5-5~----5-5~--|-------5-3~-----|x4

verse3
F|----------------|----------------|----------------|----------------|
C|----------------|----------------|----------------|----------------|
G|----------------|----------------|----------------|----------------|
C|------15\-------|------3-3~------|--5-5~----5-5~--|------5-3~------|

F|----------------|----------------|----------------|----------------|
C|----------------|----------------|----------------|----------------|
G|----------------|----------------|----------------|----------------|
C|------0-0~------|------3-3~------|--5-5~----5-5~--|------5-3~------|

F|----------------|----------------|----------------|----------------|
C|----------------|----------------|----------------|----------------|
G|----------------|----------------|----------------|----------------|
C|------0-0~------|------3-3~------|------5-5~-5-5--|-----12-10~-----|

F|----------------|----------------|----------------|----------------|
C|----------------|----------------|----------------|----------------|
G|----------------|----------------|----------------|----------------|
C|------0-0~------|------10~-------|------5-5~~-----|-------\--------|

chorus
F|--------------------------------------||
C|--------------------------------------||
G|--------------------------------------||
C|-8888888833333333-33h5-33h5-33h5-33h5-|| x4

outro
F|----------------|----------------|----------------|----------------|
C|----------------|----------------|----------------|----------------|
G|----------------|----------------|----------------|----------------|
C|------0-0~------|------3-3~------|--5-5~----5-5~--|-------5-3~-----|x2

well thats my tab