Nickelback - Throw Yourself Away Chords & Tabs

 

Throw Yourself Away Chords & Tabs

Nickelback Chords & Tabs

Version: 1 Type: Tab 0 ratings
1 star 2 stars 3 stars 4 stars 5 stars
comments

Throw Yourself Away Tab

   
i didnt see a tab for this song posted yet so heres how i think its played

Tabed by: cssnoman

Tuned down 1 step: CGCFAD

intro/riff 1
  C                         C
|-0~--------------------|---0~-----------------------|
|-3~--------------------|---3~-----------------------|
|-2~--------------------|---2~-----------------------|
|-0~---------x-xx-x-xx--|---0~---------0h3-5---------|
|-0~-----x---x-xx-x-xx--|-x-0~----x------------------|
|-0~-----x---x-xx-x-xx--|-x-0~----x------------------|
[ Tab from: http://www.guitartabs.cc/tabs/n/nickelback/throw_yourself_away_tab.html ]
chorus
|---------------------------------------------------------------|
|---------------------------------------------------------------|
|-5-5-5-5-5-5---------------------------------------------------|
|-5-5-5-5-5-5-5-5-5-5-5---3h5-5-xx--3h5-5-xx--3h5-3h5-3h5-x-----|
|-3-3-3-3-3-3-5-5-5-5-5---3h5-5-xx--3h5-5-xx--3h5-3h5-3h5-x-----|
|-------------5-5-5-5-5---3h5-5-xx--3h5-5-xx--3h5-3h5-3h5-x-----|

|-0~----------0~----------------------------|
|-3~------6---3~-----------6----------------|
|-2~------x----2~----------x----------------|
|-0~---x--3---0~---x-xx-x--3----------------|
|-0~---x------0~---x-xx-x-------------------|
|-0~---x------0~---x-xx-x-------------------|


solo
|---------------------------------------------------|
|---------------------------------------------------|
|---------------------------------------------------|
|------------------------------3-*(5)*--------------|
|-----0-5v-------0--3/5v---3-5----------------------|
|-3-5-------3--5------------------------------------|

*(5)* <-- this is where you hit the string with the pick and your picking hand thumb at 
same time and it gives a higher pitch harmonic

well im too lazy to tab out the whole solo right now but ill post it as soon as i have more time

Please post any comments or corrections.
Comments