Nickelback - Someone That Youre With Chords & Tabs

 

Someone That Youre With Chords & Tabs

Nickelback Chords & Tabs

Version: 2 Type: Tab

Someone That Youre With Tab

   
----------------------------------------------------------------------------
	         Someone That You're With - Nickelback
----------------------------------------------------------------------------
Tabbed by: Ian Dalton
Email: Markian@adelphia.net

Tuning: Drop D (DADGBe)

Verse:
e|-------------------------------------------------------------------------|
B|-------------------------------------------------------------------------|
G|-------------------------------------------------------------------------|
D|-------------------------------------------------------------------------|
A|---3h5------3h5------3h5------3h5------3h5------3h5------3h5------3h5----|
D|-------0-0------0-0------0-0------0-0------5-5------5-5------5-5------5-5|

e|-----------------------------------------------------------------------------|
B|-----------------------------------------------------------------------------|
G|-----------------------------------------------------------------------------|
D|-----------------------------------------------------------------------------|
A|---3h5-------3h5-------3h5-------3h5-------3h5------3h5------3h5------3h5----|
D|-------3-3-------3-3-------5-5-------5-5-------0-0------0-0------0-0------0-0|
(Play 2 Times)

Prechorus:
e|-------------------------------------------------------------------------|
B|-------------------------------------------------------------------------|
G|---3-3--3-3-3--3-3-3--3-3-3----------------------------------------------|
D|---3-3--3-3-3--3-3-3--3-3-3--5-5-5--5-5-5--5-5-5--5-5-5--3-3-3--3-3-3----|
A|---1-1--1-1-1--1-1-1--1-1-1--5-5-5--5-5-5--5-5-5--5-5-5--3-3-3--3-3-3----|
D|-----------------------------5-5-5--5-5-5--5-5-5--5-5-5--3-3-3--3-3-3----|

e|-------------------------------------------------------------------------|
B|-------------------------------------------------------------------------|
G|----------------5-5-5--5-5-5---------------------------------------------|
D|--3-3-3--3-3-3--5-5-5--5-5-5---3-3-3-3-3-3-3-3-3-------------------------|
A|--3-3-3--3-3-3--3-3-3--3-3-3---3-3-3-3-3-3-3-3-3-------------------------|
D|--3-3-3--3-3-3-----------------3-3-3-3-3-3-3-3-3-------------------------|
[ Tab from: http://www.guitartabs.cc/tabs/n/nickelback/someone_that_youre_with_tab_ver_2.html ]
Chorus: (Listen to the song to get the strum pattern, These are just the chords.)
e|-------------------------------------------------------------------------|
B|-------------------------------------------------------------------------|
G|---------------5---------------------------------------------------------|
D|---0-----5-----5-----5-----0---------------------------------------------|
A|---0-----5-----3-----5-----0---------------------------------------------|
D|---0-----5-----------5-----0---------------------------------------------|
(Play 2X)

Post Chorus Thinger:
e|-------------------------------------------------------------------------|
B|-------------------------------------------------------------------------|
G|-------------------------------------------------------------------------|
D|---3-3-3-3-3-3-3-3--5-5-5-5-5-5-5-5--------------------------------------|
A|---3-3-3-3-3-3-3-3--5-5-5-5-5-5-5-5-----3h5-----3h5-----3h5-----3h5------|
D|---3-3-3-3-3-3-3-3--5-5-5-5-5-5-5-5---------0-0-----0-0-----0-0-----0-0--|
(Play twice)

2nd part of Post Chorus Thinger (Again, listen to the song for the strum pattern
e|-------------------------------------------------------------------------|
B|-------------------------------------------------------------------------|
G|--3--5--------3--5--7----------------------------------------------------|
D|--3--5--3--5--3--5--7----------------------------------------------------|
A|--1--3--3--5--1--3--5----------------------------------------------------|
D|--------3--5-------------------------------------------------------------|

Acoustic Bridge Thing: (I'm not sure of the exact Chords, But these Sound Right.)
Just strum and let ring
e|-------------------------------------------------------------------------|
B|-------------------------------------------------------------------------|
G|---7-----5-----7---------------------------------------------------------|
D|---7--5--5--5--7---------------------------------------------------------|
A|---5--5--3--5--5---------------------------------------------------------|
D|------5-----5------------------------------------------------------------|

Yeah, this is my first real song Tab, But it sounds 100% right, except the
acoustic bridge part. It's a pretty simple and easy song, So have fun with it.

| /  slide up
| \  slide down
| h  hammer-on
| p  pull-off
| ~  vibrato
| +  harmonic
| x  Mute note
============================================================================