Nickelback - Someone That Youre With Chords & Tabs

 

Someone That Youre With Chords & Tabs

Nickelback Chords & Tabs

Version: 1 Type: Tab

Someone That Youre With Tab

This is only the first verse I'm still working on the choruses and what not.
Hope you like it...it's a very easy tab.

h=hammer on

e|-------------------|
B|-------------------|
G|-------------------|
D|-------------------|x4
A|-3h5---------------|
D|--------0-0--------|

e|-------------------|
B|-------------------|
G|-------------------|
D|-------------------|x4
A|-3h5---------------|
D|-------5-5---------|

e|-------------------|
B|-------------------|
G|-------------------|
D|-------------------|x2
A|-3h5---------------|
D|-------3-3---------|

e|-------------------|
B|-------------------|
G|-------------------|
D|-------------------|x2
A|-3h5---------------|
D|-------5-5---------|

e|-------------------|
B|-------------------|
G|-------------------|
D|-------------------|x4
A|-3h5---------------|
D|--------0-0--------|
[ Tab from: http://www.guitartabs.cc/tabs/n/nickelback/someone_that_youre_with_tab.html ]
e|------------------------------------|-----------------------------------|
B|------------------------------------|-----------------------------------|
G|-3-3-3---3-3-3---3-3-3---3-3-3---3--|-----------------------------------|
D|-3-3-3---3-3-3---3-3-3---3-3-3---3--|-5-5-5---5-5-5---5-5-5---5-5-5---5-|
A|-1-1-1---1-1-1---1-1-1---1-1-1---1--|-5-5-5---5-5-5---5-5-5---5-5-5---5-|
D|------------------------------------|-5-5-5---5-5-5---5-5-5---5-5-5---5-|

e|------------------------------------|------------------------------------|
B|------------------------------------|------------------------------------|
G|------------------------------------|------------------------------------|
D|------------------------------------|-6-6-6---6-6-6---6-6-6---6-6-6----6-|
G|-3-3-3---3-3-3---3-3-3---3-3-3---3--|-6-6-6---6-6-6---6-6-6---6-6-6----6-|
A|-3-3-3---3-3-3---3-3-3---3-3-3---3--|-3-3-3---3-3-3---3-3-3---3-3-3----3-|
D|-3-3-3---3-3-3---3-3-3---3-3-3---3--|------------------------------------|