Nickelback - Someday Chords & Tabs

 

Someday Chords & Tabs

Nickelback Chords & Tabs

Version: 7 Type: Tab 0 ratings
1 star 2 stars 3 stars 4 stars 5 stars
comments

Someday Tab

   
Tuning: Drop D (D,A,D,G,B,e)


Intro

|------2-2--2-2-2--2--------------------0----0-0------0-0-----0--0-0---|
|-xxx--3-3--3-3-3--3----8-8-8--8-8----0-0--0-0-0----3-3-3-----3--3-3---|
|-xxx--4-4--4-4-4--4----7-7-7--7-7----2-2--2-2-2----2-2-2-----2--2-2---|
|-xxx--4-4--4-4-4--4----5-5-5--5-5----2-2--2-2-2----0-0-0-----0--0-0---|
|-xxx--2-2--2-2-2--2----5-5-5--5-5----0-0--0-0-0-----------------------|
|-^V^-------------------5-5-5--5-5-------------------------------------|
            Bm              G5             A2             D2 


|-------2---|----------|----------|-----0----|
|-----3---3-|---0------|----3-2-0-|-------3--|
|-2h4-------|-----0----|----------|---2------|
|-----------|-------0--|-2--------|-0--------|
|-----------|----------|-0--------|----------|
|-----------|-5--------|----------|----------|
      Bm         G5         A2         D2


|------|--14-|---12------12-10-|------|--14-------|--12-10---|
|--12--|-----|-------10--------|--12--|-------10--|----------|
|------|-----|-----------------|------|-----------|----------|
|------|-----|-----------------|------|-----------|----------|
|------|-----|-----------------|------|-----------|----------|
|------|-----|-----------------|------|-----------|----------|

Pre-Chorus
|-----------------------------------------------------|-----------|
|-----------------------------------------------------|-----------|
|-----------------------------------------------------|-----------|
|---------2-2-2-2-2-2-2-2-------------7--7--7--7---7--|-----------|
|---------2-2-2-2-2-2-2-2-------------7--7--7--7---7--|-----------|
|---------2-2-2-2-2-2-2-2-------------7--7--7--7---7--|-----------|
           
[ Tab from: http://www.guitartabs.cc/tabs/n/nickelback/someday_tab_ver_7.html ]
Chorus
|---------------------------------------------------|
|---------------------------------------------------|
|---------------------------------------------------|
|---5-5-5----0-0-0-------7-7-7--------------2-2-2---|
|---5-5-5----0-0-0-------7-7-7--------------2-2-2---|
|---5-5-5----0-0-0-------7-7-7--------------2-2-2---|



|------------------------------------------------------|
|------------------------------------------------------|
|------------------------------------------------------|
|---5-5-5--------7-7-7-----------9-9-9----------7-7-7--|
|---5-5-5--------7-7-7-----------9-9-9----------7-7-7--|
|---5-5-5--------7-7-7-----------9-9-9----------7-7-7--|


|-----------------|
|------------7----|
|-------7h9----9--|
|--7h9------------|
|-----------------|
|-----------------|

Solo

|----------------------------------------------------------------|
|--hold2h3p2---------hold2h3p2-----------------------------------|
|-----4-------2/4-------2-------2/4------4--6------6--4----------|
|-----------------------------------------------2----------------|
|--/2----------------0-----------------0-------------------------|
|----------------------------------------------------------------|

|------------------|-----------------------|---------------------|
|------------------|-----------------------|------5-5--2-2--3-3--|
|--4--6-7--4--6-7--|--4-4-4--6-6-6--7-7-7--|-2-2-----------------|
|------------------|-----------------------|---------------------|
|------------------|-----------------------|---------------------|
|------------------|-----------------------|---------------------|

|-----------------------|----------------------|-----------------------|
|-----------------------|-------7-7--3-3--5-5--|-----------------------|
|--4-4-4--6-6-6--7-7-7--|--2-2-----------------|--4-4-4--6-6-6--7-7-7--|
|-----------------------|----------------------|-----------------------|
|-----------------------|----------------------|-----------------------|
|-----------------------|----------------------|-----------------------|

|-----------------|
|---------5/7-----|
|--2-2-2--------4-|
|-----------------|
|-----------------|
|-----------------|



Lead Outro
|-----------------|
|------------7----|
|-------7h9----9--|
|--7h9------------|
|-----------------|
|-----------------|
Comments