Nickelback - Someday Chords & Tabs

 

Someday Chords & Tabs

Nickelback Chords & Tabs

Version: 1 Type: Tab 0 ratings
1 star 2 stars 3 stars 4 stars 5 stars
comments

Someday Tab

   
Bm             G                A
How the hell'd we wind up like this?
      D
Why weren't we able
Bm           G             A
To see the signs that we missed
        D
Try and turn the tables
Bm           G              A
I wish you'd unclench your fists

Riff 1
(on A chord in background)
E|----------------------------
B|-----------2----------------
G|----------------------------
D|----------------2-----------
A|------0--------------0------
E|----------------------------
     D
And unpack your suitcase
Bm              G                A (Riff 1)
Lately there’s been too much of this
       D
But don't think it's too late
E
Nothings wrong
         A
Just as long as you know that someday I will
  G         D
Someday, Somehow
A                    E
I'm gonna make it alright but not alright now
G              A            Bm               A
I know you’re wondering away (you’re the only one who knows that)
  G         D
Someday, Somehow
A                      E
I'm gonna make it alright but not right now
G              A          Bm
I know you're wondering away
     Bm                    G            A (Riff 1)
Well I hope that since we're here anyway
       D
We could end up saying
Bm                G             A (Riff 1)
Things we've always needed to say
        D
So we could end up staying
Bm             G                 A (Riff 1)
Now the story's played out like this
          D
Just like a paperback novel
Bm             G              A (Riff 1)
Let’s rewrite an ending that fits
         D
Instead of hollywood horror
E
Nothings wrong
         A
Just as long as you know that someday I will
  G         D
Someday, Somehow
A                    E
I'm gonna make it alright but not alright now
G            A          Bm                A
I know you’re wondering away (you’re the only one who knows that)
  G         D
Someday, Somehow
A                     E
I'm gonna make it alright but not right now
G            A           Bm
I know you're wondering away
[ Tab from: http://www.guitartabs.cc/tabs/n/nickelback/someday_tab.html ]
(Chorus chords in background)
Riff 2 (solo break)
E|--------------------------------------------
B|--------------------------------------------
G|------4---6h76----------4---6h76----------4-
D|--0---------------7---4--------------7---4--
A|--------------------------------------------
E|--------------------------------------------

E|--------------------------------------------
B|--------2--3------3--2-------2--3-----2--3--
G|---------2-----------4---------2------------
D|--------------------------------------------
A|--------------------------------------------
E|--------------------------------------------

(either 2 guitars or hit twice for effect)
E|------------------------------------------2-----------------------------
B|-----2--3------5--2--3------2--3----------2--3-----2--3------5--7--0----
G|--4--------2--------------4---------2-------------4--------2------------
D|------------------------------------------------------------------------
A|------------------------------------------------------------------------
E|------------------------------------------------------------------------


Bm              G             A (Riff 1)
How the hell'd we wind up like this?
      D
Why weren't we able
Bm           G                A (Riff 1)
To see the signs that we missed
       D
And try and turn the tables
Bm              G                 A (Riff 1)
Now the story's played out like this
          D
Just like a paperback novel
Bm                 G            A (Riff 1)
Let’s rewrite and ending that fits
          D
Instead of hollywood horror
E
Nothings wrong
          A 
Just as long as you know that someday I will
   G        D              
Someday, Somehow
A                    E                          
I'm gonna make it alright but not right now
G            A            Bm             A
I know you're wondering away (you're the only one who knows that)
   G        D
Someday, Somehow 
A                    E
I'm gonna make it alright but not right now
G            A            Bm              A                         
I know you're wondering away (You're the only one who knows that)
G            A            Bm              A
I know you're wondering away (You're the only one who knows that)
G            A           E
I know you're wondering away

(Riff 3)
E|------------------------------------------------
B|---0h2--3--5h7----0h2--3--5h7----0h2--3--5h7----
G|------------------------------------------------
D|------------------------------------------------
A|------------------------------------------------
E|------------------------------------------------
Comments