Nickelback - Someday Live Chords & Tabs

 

Someday Live Chords & Tabs

Nickelback Chords & Tabs

Version: 1 Type: Tab 0 ratings
1 star 2 stars 3 stars 4 stars 5 stars
comments

Someday Live Tab

   
			***************************
				NickelBack: Someday (Live )
				***************************

This Tablature is in 2 concerts... the first is in the hard rock concert, and the other 
in Some city of Canada... in the Tour of The Long Road....

Tabbed by: Pastor_Metal
E-Mail: pastor_metal@hotmail.com
Tunning: EADGBE
*Live in Hard Rock Concert*

Gtr I 	- Chad Kroeger
Gtr II 	- Ryan Peake

Verse 1: (Acustic or Clean) "How the Hell..."

  Bm              G             A             D/D9
E|2-2-2-2--x-x--3-3-3-3--x-x--5-5-5-5--x-x--5-5-5-5----------|
B|3-3-3-3--x-x--3-3-3-3--x-x--5-5-5-5--x-x--5-5-5-7----------|
G|4-4-4-4--x-x--4-4-4-4--x-x--6-6-6-6--x-x--7-7-7-7---|------| X4
D|4-4-4-4--x-x--5-5-5-5--x-x--7-7-7-7--x-x--7-7-7-7---|------|
A|2-2-2-2--x-x--5-5-5-5--x-x--7-7-7-7--x-x--5-5-5-5----------|
E|x-x-x-x--x-x--3-3-3-3--x-x--5-5-5-5--x-x--x-x-x-x----------|

Pre - Chorus: (Distorcion) "Nothing's Wrong..."

    E5               A5
E|----------------------------------|
B|----------------------------------|
G|----------------------------------|
D|2-2-2-2-2-2-2-2-------------------|
A|2-2-2-2-2-2-2-2--7-7-7-7-7-7------|
E|0-0-0-0-0-0-0-0--5-5-5-5-5-5------|

Chorus: (Distorcion) "Someday, Somehow, I'm gonna make..."
   G5       D5       A5          E5             G5    A5     B5        A5
E|-----x-x-------x-x-------x-x------------x-x---------------------------------------|
B|-----x-x-------x-x-------x-x------------x-x---------------------------------------|
G|-----x-x-------x-x-------x-x------------x-x--------------------------------|------| X2
D|-----x-x--7-7--x-x-------x-x--2-2-2-2---x-x--------------------------------|------|
A|5-5--x-x--5-5--x-x--7-7--x-x--2-2-2-2---x-x--5-5-5--7-7-7--9-9-9--7-7-7-7---------|
E|3-3--x-x-------x-x--5-5--x-x--0-0-0-0---x-x--3-3-3--5-5-5--7-7-7--5-5-5-5---------|

Solo:

E|----------------------------------------------------------------------|
B|-----------------------------------------------------0-2-3----2-3-----|
G|------4-6h7---4----------6h7----4--------2-4----6-4---------2---------|
D|------------4-----------------4-------0------2------------------------|
A|--/7------------------7-----------------------------------------------|
E|-------------------5--------------------------------------------------|

E|--------------------------|----------------------------|--------------------------------|
B|--------------------------|----------------------------|--------------------------------|
G|---------6-6-7----9-6-7---|---------6-6-7-----11-6-7---|---------6-6-7----9-11----------|
D|--9-9-9---------7---------|--9-9-9---------7-----------|--9-9-9---------7---------9~~~--|
A|--------------------------|----------------------------|--------------------------------|
E|--------------------------|----------------------------|--------------------------------|
End of Solo

*****¡¡¡Enjoy!!!*****
Order:

Verse
Pre-Chorus
Chorus
Verse
Pre-Chorus
Chorus
Solo
Verse
Pre-Chorus
Chorus
[ Tab from: http://www.guitartabs.cc/tabs/n/nickelback/someday_live_tab.html ]
==========================================================================================
Live in The Some City  of Canada in the Tour of The Long Road (I lowered the video of Internet)
Remember, NickelBack Always play in DROP C or 1 Step Down

Tunning: should be tuned 1 step down.
D G C F A D

Gtr I  - Chad Kroeger
Gtr II - Ryan Peake

Verse: (Acoustic or Clean)...

    C#m           A             B/B9           E
D|4-4-4-4--x-x--5-5-5-5--x-x--2-2-2-2--x-x--0-0-0-0----------|
A|5-5-5-5--x-x--5-5-5-5--x-x--2-2-2-2--x-x--0-0-0-0----------|
F|6-6-6-6--x-x--6-6-6-6--x-x--4-4-4-4--x-x--1-1-1-1---|------| X4
C|6-6-6-6--x-x--7-7-7-7--x-x--4-4-4-4--x-x--2-2-2-2---|------|
G|4-4-4-4--x-x--7-7-7-7--x-x--2-2-2-2--x-x--2-2-2-2----------|
D|x-x-x-x--x-x--5-5-5-5--x-x--x-x-x-x--x-x--0-0-0-0----------|

Pre-Chorus: (Distorcion)

    F#5              B5
D|----------------------------------|
A|----------------------------------|
F|----------------------------------|
C|----------------------------------|
G|4-4-4-4-4-4-4-4--9-9-9-9-9-9------|
D|2-2-2-2-2-2-2-2--7-7-7-7-7-7------|

Chorus: (Distorcion)

    A5        E5         B5        F#5           A5      B5     C#5
D|-------x-x--------x-x------x-x-----------x-x---------------------------------|
A|-------x-x--------x-x------x-x-----------x-x---------------------------------|
F|-------x-x--------x-x------x-x-----------x-x--------------------------|------| X2
C|-------x-x--9--9--x-x------x-x-----------x-x--------------------------|------|
G|--7-7--x-x--7--7--x-x-9-9--x-x--4-4-4-4--x-x--7-7-7--9-9-9--11-11-11---------|
D|--5-5--x-x--------x-x-7-7--x-x--2-2-2-2--x-x--5-5-5--7-7-7--9--9--9----------|

Solo:

D|-----------------------------------------------------------------|
A|------------------------------------------------2--4-5----4-5----|
F|-----6-8h9---6--------8h9---6------4-6----8-6-----------4--------|
C|-----------6--------------6-----2------4-------------------------|
G|--/9--------------9----------------------------------------------|
D|----------------7------------------------------------------------|

D|-----------------------------|--------------------------------|--------------------------------------|
A|-----------------------------|--------------------------------|--------------------------------------|
F|------------8-8-9---11--8-9--|------------8-8-9-----13--9-11--|------------8-8-9------11-13----------|
C|--11-11-11--------9----------|--11-11-11---------9------------|--11-11-11---------9---------11~~~~---|
G|-----------------------------|--------------------------------|--------------------------------------|
D|-----------------------------|--------------------------------|--------------------------------------|
End of Solo

*****¡¡¡Enjoy!!!*****
Order:

Verse
Pre-Chorus
Chorus
Verse
Pre-Chorus
Chorus
Solo
Verse
Pre-Chorus
Chorus

BIG SONG
BIG BAND
BIG TAB!!!!!!!!!!!!!
Any Questions??? Just send me e-mail!!!
pastor_metal@hotmail.com
Comments