Nickelback - Someday Chords & Tabs

 

Someday Chords & Tabs

Nickelback Chords & Tabs

Version: 2 Type: Bass Tab 0 ratings
1 star 2 stars 3 stars 4 stars 5 stars
comments

Someday Bass Tab

Band- Nickelback
Song- Someday

Intro
G|---------||
D|---------||
A|---------||
E|---------||
B|--/------||

Verse
G|-------------------------------------------------------||
D|--------------------7--7--7--7-------------------------||
A|-----------5--5--5----------------5---5----------------||
E|-------------------------------------------------------||
B|--0----0-----------------------------------------------||

(contined)
G|-------------------------------------------------------||
D|-------------------7--7--7--7--------------------------||
A|----------5--5--5--------------------------------------||
E|-------------------------------------------------------||
B|--0----0-------------------------3---3-----------------||


Pre-Chorus
G|-------------------------------------------------------||
D|-------------------------------------------------------||
A|-------------------------------------------------------||
E|--------------------------5--5--5--5--5----------------||
B|--5--5--5--5--5--5--5--5-------------------------------||


Chorus
G|-------------------------------------------------------||
D|-------------------------------------------------------||
A|-------------------------------------------------------||
E|--3---3------------5---5--5----------------------------||
B|----------3--3--3-------------5--5--5------------------||
[ Tab from: http://www.guitartabs.cc/tabs/n/nickelback/someday_btab_ver_2.html ]
(continued)
G|-------------------------------------------------------||
D|-------------------------------------------------------||
A|-------------------------------------------------------||
E|--3---3--3---5---5--5----------------5--5--5--5--------||
B|------------------------0--0--0--0---------------------||

(continued)
G|-------------------------------------------------------||
D|-------------------------------------------------------||
A|-------------------------------------------------------||
E|--3---3------------5---5--5----------------------------||
B|----------3--3--3-------------5--5--5------------------||

(continued)
G|-------------------------------------------------------||
D|-------------------------------------------------------||
A|-------------------------------------------------------||
E|--3---3--3---5---5--5----------------------------------||
B|------------------------0--0--0--0--0-0~---------------||


Outro
G|-------------------------------------------------------||
D|-------------------------------------------------------||
A|-------------------------------------------------------||
E|--3---3------------5---5--5----------------------------||
B|----------3--3--3-------------5--5--5------------------||

(continued)
G|-------------------------------------------------------||
D|-------------------------------------------------------||
A|-------------------------------------------------------||
E|--3---3--3---5---5--5----------------------------------||
B|------------------------5~-----------------------------||


Intro
Verse
Pre-Chorus
Chorus
Verse
Pre-Chorus
Chorus
Verse
Pre-Chorus
Chorus
Outro
Comments