Nickelback - Some-one That Your With Chords & Tabs

 

Some-one That Your With Chords & Tabs

Nickelback Chords & Tabs

Version: 1 Type: Tab 0 ratings
1 star 2 stars 3 stars 4 stars 5 stars
comments

Some-one That Your With Tab

   
Band: Nickelback
Song: Some-One That Your With
Album: All The Right Reasons (Brand new)
Chad Kroeger: Lead Vocals and guitars
Ryen Peake: guitar and vocals
Mike Kroeger: Bass
Daniel Adair: Drums and Vocals
Tabbed by Ben Downes
This is the 6th tab that I have done for
Nickelback
I think it is in Drop D
But try it in standard tunning as we'll
But if you think you have the correct virsion
Email it to me please at this address
jamin2_85@hotmail.com so I can edit the tab

I don't know the intro yet but when I do I will add it to
The tab.

I reside in 209, your in 208
You move in last friday night
And I just couldn't wait
So I tried to call across the hall
To ask you out some day
But a line had formed outside your door
And I was way too late

e|-------------------------------------|
B|-------------------------------------|
G|-------------------------------------|
D|-2-2x2-2-2x2-2-2x2-5-5x5-5-5x5-5-5x5-|
A|-2-2x2-2-2x2-2-2x2-5-5x5-5-5x5-5-5x5-|
D|-2-2x2-2-2x2-2-2x2-5-5x5-5-5x5-5-5x5-|

e|----------------------------------------------|
B|----------------------------------------------|
G|----------------------------------------------|
D|-2-2x2-2-2x2-2-2x2-10-10x10-10-10x10-10-10x10-|
A|-2-2x2-2-2x2-2-2x2-10-10x10-10-10x10-10-10x10-|
D|-2-2x2-2-2x2-2-2x2-10-10x10-10-10x10-10-10x10-|
Pre Chorus 
We'll I'd rather start off slow
This whole thing likes 
Some sort of a race
Instead of winning what I want
I'm sitting here in second place
 
Listen to the song for the timming
  A  Bb D   G  A
e|----------------|
B|----------------|
G|----------------|
D|-5--8--10--3--5-|
A|-5--8--10--3--5-|
D|-5--8--10--3--5-|
Chorus
Because somewhere the one I wanna be with
With's some body else
Oh god, I wana be that some-one that your with
And I can talk about it all day long
Till I run out of breath
But I still wanna be that some-one that your with

   Bb D   A  Bb D   A
e|--------------------|
B|--------------------|
G|--------------------|
D|-8--10--5--8--10--5-|
A|-8--10--5--8--10--5-|
D|-8--10--5--8--10--5-|
And I'm placin' by the phone
   Bb D   A  Bb D   A
e|--------------------|
B|--------------------|
G|--------------------|
D|-8--10--5--8--10--5-|
A|-8--10--5--8--10--5-|
D|-8--10--5--8--10--5-|
Cause' I hate to be alone

A  Bb D   G  A
e|-----------------------|
B|-----------------------|
G|-----------------------|
D|-8--10--3--5--8--10--5-|
A|-8--10--3--5--8--10--5-|
D|-8--10--3--5--8--10--5-|

And if your out there with hime some where
And just about to kiss 
God I wanna be that some-one that your with

2nd Verse
We'll I hear your favourite songs you
Sing along with everyday
I borrow things that I don't need 
For conversations sake
Last night I heard your key
It hit your lock at 4 A.M.
Instead of being out with me
You must be out with them

e|-------------------------------------|
B|-------------------------------------|
G|-------------------------------------|
D|-2-2x2-2-2x2-2-2x2-5-5x5-5-5x5-5-5x5-|
A|-2-2x2-2-2x2-2-2x2-5-5x5-5-5x5-5-5x5-|
D|-2-2x2-2-2x2-2-2x2-5-5x5-5-5x5-5-5x5-|
[ Tab from: http://www.guitartabs.cc/tabs/n/nickelback/some_one_that_your_with_tab.html ]
e|----------------------------------------------|
B|----------------------------------------------|
G|----------------------------------------------|
D|-2-2x2-2-2x2-2-2x2-10-10x10-10-10x10-10-10x10-|
A|-2-2x2-2-2x2-2-2x2-10-10x10-10-10x10-10-10x10-|
D|-2-2x2-2-2x2-2-2x2-10-10x10-10-10x10-10-10x10-|
Pre Chorus 
We'll I'd rather start off slow
This whole thing likes 
Some sort of a race
Instead of winning what I want
I'm sitting here in second place

 A  Bb D   G  A
e|----------------|
B|----------------|
G|----------------|
D|-5--8--10--3--5-|
A|-5--8--10--3--5-|
D|-5--8--10--3--5-|
Chorus
Because somewhere the one I wanna be with
With's some body else
Oh god, I wana be that some-one that your with
And I can talk about it all day long
Till I run out of breath
But I still wanna be that some-one that your with

 Bb D   A  Bb D   A
e|--------------------|
B|--------------------|
G|--------------------|
D|-8--10--5--8--10--5-|
A|-8--10--5--8--10--5-|
D|-8--10--5--8--10--5-|
And I'm placin' by the phone
   Bb D   A  Bb D   A
e|--------------------|
B|--------------------|
G|--------------------|
D|-8--10--5--8--10--5-|
A|-8--10--5--8--10--5-|
D|-8--10--5--8--10--5-|
Cause' I hate to be alone

A  Bb D   G  A
e|-----------------------|
B|-----------------------|
G|-----------------------|
D|-8--10--3--5--8--10--5-|
A|-8--10--3--5--8--10--5-|
D|-8--10--3--5--8--10--5-|
And if your out there with hime some where
And just about to kiss 
Then god I wanna be that some-one 
That your with

Guitar 1 acoustic only
Playing these chords in 
Drop D
 A  Bb D   G  A
e|----------------|
B|----------------|
G|----------------|
D|-5--8--10--3--5-|
A|-5--8--10--3--5-|
D|-5--8--10--3--5-|
Chorus
Because somewhere the one I wanna be with
With's some body else
Oh god, I wana be that some-one that your with
 A  Bb D   G  A
e|----------------|
B|----------------|
G|----------------|
D|-5--8--10--3--5-| Ditortion come 
A|-5--8--10--3--5-| in
D|-5--8--10--3--5-|
And I can talk about it all day long
Till I run out of breath
But I still wanna be that some-one that your with
I've got to be that some-one that your with

Bb D   A  Bb D   A
e|--------------------|
B|--------------------|
G|--------------------|
D|-8--10--5--8--10--5-|
A|-8--10--5--8--10--5-|
D|-8--10--5--8--10--5-|
And I'm placin' by the phone
   Bb D   A  Bb D   A
e|--------------------|
B|--------------------|
G|--------------------|
D|-8--10--5--8--10--5-|
A|-8--10--5--8--10--5-|
D|-8--10--5--8--10--5-|
Cause' I hate to be alone

A  Bb D   G  A
e|-----------------------|
B|-----------------------|
G|-----------------------|
D|-8--10--3--5--8--10--5-|
A|-8--10--3--5--8--10--5-|
D|-8--10--3--5--8--10--5-|
And if your out there with hime some where
And just about to kiss 
Then god I got to be that some-one that
I wanna be that some one that
I've got to be that some one that your with

Hold A for about 6 seconds as shown
e|--------|
B|--------|
G|--------|
D|-5------|
A|-5------|
D|-5------|

5------ = how many seconds
It is held for.
Hope you enjoy the song
I said before if you think you have
The correct virsion, Drop D or
Standard tunning, Email it
To me at this adress
Jamin2_85 @hotmail.com
Good luck.
Comments