Nickelback - Side Of A Bullet Chords & Tabs

 

Side Of A Bullet Chords & Tabs

Nickelback Chords & Tabs

Version: 1 Type: Tab

Side Of A Bullet Tab

   
Nickelback - Side Of A Bullet

Tuning: Drop B (BF#BEG#C#)


I couldn't find any Tab for this song, so I tried myself... maybe it's not 100% correct!


Intro

  B     B    F  B   F  B    A  B B  B   C#  B   D#   B
--------------------------------------------------------------|
--------------------------------------------------------------|
----------------------------------------9-------11------------|
-0-0---0-0---6-0-0--6-0-0---10-0-12-0---9---0---11---0--------|
-0-0---0-0---6-0-0--6-0-0---10-0-12-0---7---0---9----0--------|
-0-0---0-0---6-0-0--6-0-0---10-0-12-0-------0--------0--------|

[ Tab from: http://www.guitartabs.cc/tabs/n/nickelback/side_of_a_bullet_tab.html ]
--------------------------------------------|
--------------------------------------------|
----------------------9-------11------------|
--6-0-0---10-0-12-0---9---0---11---0--------|
--6-0-0---10-0-12-0---7---0---9----0--------|
--6-0-0---10-0-12-0-------0--------0--------|

-------------------------------|
-------------------------------|
-------------------------------|
--6-0-0---10-0-0-12---0--------| (I think that's the Verse, too)
--6-0-0---10-0-0-12---0--------|
--6-0-0---10-0-0-12---0--------|


Uncle Sam taught him to shot...

Sorry no Chorus, it's hard to figure out!
I'm still working at the Solo! For those who didn't know: The Solo was put together from 
Dimebag Darell Solos,
given to Nickelback by Dimebag's Brother, who asked Nickelback for this Tribute! A great song!

Nickelback uses Mesa Boogie Triple Rectifiers!
Chad plays it with one of his PRS Singlecuts!
I could imagine that Ryan plays it with his Gibson Explorer or Flying V, but maybe Les Paul...?!

For questions etc. mailto: buff.da@web.de