Nickelback - Shouldve Listened Chords & Tabs

 

Shouldve Listened Chords & Tabs

Nickelback Chords & Tabs

Version: 1 Type: Bass Tab 0 ratings
1 star 2 stars 3 stars 4 stars 5 stars
comments

Shouldve Listened Bass Tab

Beginning


G-------------------------------------------------|
D--------0----------------------------------------|
A--2----------------0-----------------------------|
E-------------3------------0----------------------|


rest of song
[ Tab from: http://www.guitartabs.cc/tabs/n/nickelback/shouldve_listened_btab.html ]
G---------------------------------------------------------------------------|
D---------------------0--0-0---0--0-0---------------------------------------|
A--2--2-2---2--2-2----------------------------------0--0--00----------------|
E----------------------------------------3--3-3------------------0--0-0-0-0-|


thats it, its really simple and fun to play with and acustic. Remember that rest after 
open e string.
Comments