Nickelback - See You At The Show Chords & Tabs

 

See You At The Show Chords & Tabs

Nickelback Chords & Tabs

Version: 1 Type: Tab 0 ratings
1 star 2 stars 3 stars 4 stars 5 stars
comments

See You At The Show Tab

   
Band: Nickelback
Song: See You At The Show
Album: The Long Road
Tabber: Reuel Willys (reuelwillys@bol.com.br for any suggestions)

Drop-D: (E B G D A D)

Intro:
e|-0---0------3-0-----0---0------3-0------0---0------3-0------0--|
B|-3---1--1-1-1-1-----3---1--1-1-1-1-1-1--3---1--1-1-1-1-1-1--3--|
G|-2---2--2---2-2-----2---2--2---2-2-2-2--2---2--2---2-2-2-2--2--|
D|-0---0--------------0---0----------0-0--0---0----------0-0--0--|
A|-0---0--------------0---0---------------0---0---------------0--|
D|-0---0--------------0---0---------------0---0---------------0--|

Drums fill goes in

Verse: The verse chords are strummed by an acoustic guitar (Standart Tuning)
   D        G        A    D    E    D                 G                 A          D          E
e|-2--------3--------0----2-------|-2--2--2-2-2-2--2--------------------0--0--0-0--2--2--2-2--0--|
B|-3--------3--------2----3----0--|-3--3--3-3-3-3--3--------------------2--2--2-2--3--3--3-3--0--|
G|-2--------0--------2----2----1--|-2--2--2-2-2-2--2--0--0--0-0-0-0--0--2--2--2-2--2--2--2-2--1--|
D|-0--------0--------2----0----2--|-0--0--0-0-0-0--0--0--0--0-0-0-0--0--2--2--2-2--0--0--0-0--2--|
A|-------------------0---------2--|-------------------x--x--x-x-x-x--x--0--0--0-0-------------2--|
E|-----------------------------0--|-------------------3--3--3-3-3-3--3------------------------0--|
  [    First and third verses    ] [                      Secound verse                         ]

But you can do this with Drop-D
e|-2-----------------0----2-------|
B|-3-----------------2----3----0--|
G|-2--------0--------2----2----1--|
D|-0--------0--------2----0----2--|
A|----------x--------0---------2--|
D|----------5------------------2--|
[ Tab from: http://www.guitartabs.cc/tabs/n/nickelback/see_you_at_the_show_tab.html ]
Chorus:      [                                      Play this 2 times                                         ]
e|-----------|------------------------------------------------------------------------------------------------|
B|-----------|------------------------------------------------------------------------------------------------|
G|-----------|------------------------------------------------------------------------------------------------|
D|-0-0--0-0--|0--0--0-0--2--2--2-2--/9--9--9-9.--4-4-4--4-4---0--0--0-0--2--2--2-2--/9--9--9-9.--4-4-4--4-4-4-|
A|-0-0--0-0--|0--0--0-0--2--2--2-2--/9--9--9-9.--4-4-4--4-4---0--0--0-0--2--2--2-2--/9--9--9-9.--4-4-4--4-4-4-|
D|-0-0--0-0--|0--0--0-0--2--2--2-2--/9--9--9-9.--4-4-4--4-4-0-0--0--0-0--2--2--2-2--/9--9--9-9.--4-4-4--4-4-4-|
   x x  x x

Secound verse
Chorus

Bridge:
e|-----------------------------------------------------------------|
B|-----------------------------------------------------------------|
G|-----------------------------------------------------------------|
D|---------------------------------------------------4-4-4--4-4-4--|
A|---------2-------2-------------5---------2---------4-4-4--4-4-4--|
D|-0-2-3-4---3-2-0---4-3-2-0-2-3---0-2-3-4---4-3-2.--4-4-4--4-4-4--|

e|--------------------------------------------------------------|
B|--------------------------------------------------------------|
G|--------------------------------------------------------------|
D|---------------------------------------------------4-4-4--2~--|
A|---------2-------2-------------5---------2---------4-4-4--2~--|
D|-0-2-3-4---3-2-0---4-3-2-0-2-3---0-2-3-4---4-3-2.--4-4-4--2~--|

Solo:
e|-------------------------------------------------------------|
B|-------------------------------------------------------------|
G|-------------------------------------------------------------|
D|-----------------------------------12------------------------|
A|----------------10b~r--12~~\-12-12----12~~---------/5--------|
D|-x\/12~--10~~~~------------------------------0-3~~----3~~~~--|

e|-------------------------------------------------------|
B|-------------------------------------------------------|
G|-7h9-7--7h9-7-5-----5--7h9-7--7h9-7-5-----7h9-7~~~~~~--|
D|----------------5h7-------------------5h7--------------|
A|-------------------------------------------------------|
D|-------------------------------------------------------|

Third verse
Chorus

Outro: Play this 3 times                then
e|-------------------------------------|------------------------------|
B|-------------------------------------|------------------------------|
G|-------------------------------------|------------------------------|
D|-2-2.--2--5-5-5-5--0-0.--0--7-7-7-7--|-2-2.--2--5-5-5-5--0-0.-0--7--|
A|-2-2.--2--5-5-5-5--0-0.--0--7-7-7-7--|-2-2.--2--5-5-5-5--0-0.-0--7--|
D|-2-2.--2--5-5-5-5--0-0.--0--7-7-7-7--|-2-2.--2--5-5-5-5--0-0.-0--7--|

Keys:
x - palm muted
. - staccato note
/ - slide up
\ - slide down
~ - vibrato
b - bend
r - release
h - hammer on
p - pull off

It's done. Enjoy.
Comments