Nickelback - See You At The Show Chords & Tabs

 

See You At The Show Chords & Tabs

Nickelback Chords & Tabs

Version: 3 Type: Chords 0 ratings
1 star 2 stars 3 stars 4 stars 5 stars
comments

See You At The Show Chords

   
See You At The Show Chords By Nickelback @ www.Ultimate-guitar.com 
Tabbed by Ben Downes.
I think this the forth song that i have put chords on ultimate-guitar
for Nickelback.
These four guys will never sease to amaze me I will always be impressed
By Nickelbacks songs.

Chad Kroeger comes in with the chord intro 4 times
Then the rest of the band comes in.


Verse
C#
Crowds that scream at superstars
Gb
where bouncer's show thier battle scars
    Am             B               Gb    
I've been the first to sign on every wall
C# 
Down the road and round the bend
Gb 
We pray to god it never ends
     Am                 B                  Gb
I've been, I've seen, we've screamed to everyone


Chorus
                   C#
We'll see you at the show
  B                         Gb
If you don't come we'll never know
 B                 C#
You stand off in the back
          B                           Gb
You still stand out while your wearing black
C#
Jump on to the bus 
   B                   Gb
And ride around with all of us
C#
We'll go out on the town
    B                        Gb
And light it up till we burn it down
Gb
Burn it down


2nd verse
C#
After hours of alcohol
Gb
Every club, we've seen "em" all
Am                B                 Gb
As long as we don't need to stand in line
C# 
Party scenes and bill board dreams
Gb
The ladies love those limousines
Am              B                Gb
You know there gonna show up every time


Chorus
                   C#
We'll see you at the show
  B                         Gb
If you don't come we'll never know
 B                 C#
You stand off in the back
          B                           Gb
You still stand out while your wearing black
C#
Jump on to the bus 
   B                   Gb
And ride around with all of us
C#
We'll go out on the town
    B                        Gb
And light it up till we burn it down
Gb
Burn it down

[ Tab from: http://www.guitartabs.cc/tabs/n/nickelback/see_you_at_the_show_crd_ver_3.html ]
Bridge:
e|-----------------------------------------------------------------|
B|-----------------------------------------------------------------|
G|-----------------------------------------------------------------|
D|---------------------------------------------------4-4-4--4-4-4--|
A|---------2-------2-------------5---------2---------4-4-4--4-4-4--|
D|-0-2-3-4---3-2-0---4-3-2-0-2-3---0-2-3-4---4-3-2.--4-4-4--4-4-4--|

e|--------------------------------------------------------------|
B|--------------------------------------------------------------|
G|--------------------------------------------------------------|
D|---------------------------------------------------4-4-4--2~--|
A|---------2-------2-------------5---------2---------4-4-4--2~--|
D|-0-2-3-4---3-2-0---4-3-2-0-2-3---0-2-3-4---4-3-2.--4-4-4--2~--|


Solo:
e|-------------------------------------------------------------|
B|-------------------------------------------------------------|
G|-------------------------------------------------------------|
D|-----------------------------------12------------------------|
A|----------------10b~r--12~~\-12-12----12~~---------/5--------|
D|-x\/12~--10~~~~------------------------------0-3~~----3~~~~--|

e|-------------------------------------------------------|
B|-------------------------------------------------------|
G|-7h9-7--7h9-7-5-----5--7h9-7--7h9-7-5-----7h9-7~~~~~~--|
D|----------------5h7-------------------5h7--------------|
A|-------------------------------------------------------|
D|-------------------------------------------------------|


Verse
C#
Crowds that scream at superstars
Gb
where bouncer's show thier battle scars
    Am             B               Gb    
I've been the first to sign on every wall
C# 
Down the road and round the bend
Gb 
We pray to god it never ends
     Am                 B                  Gb
I've been, I've seen, we've screamed to everyone


Chorus
                   C#
We'll see you at the show
  B                         Gb
If you don't come we'll never know
 B                 C#
You stand off in the back
          B                           Gb
You still stand out while your wearing black
C#
Jump on to the bus 
   B                   Gb
And ride around with all of us
C#
We'll go out on the town
    B                        Gb
And light it up till we burn it down
Gb
Burn it down


C#                         Gb
Light it up till we burn it down
C#                         Gb
Light it up till we burn it down
     C#                         Gb
Light it up till we burn it down, burn it down

Finish on (Gb)

I am damn sure that this tab is 100% correct
If you find that there are any incorrections
Email them to me @ jamin2_85@hotmail.com
Best of luck to all of you who are learning this song
Comments