Nickelback - Savin Me Chords & Tabs

 

Savin Me Chords & Tabs

Nickelback Chords & Tabs

Version: 4 Type: Tab 0 ratings
1 star 2 stars 3 stars 4 stars 5 stars
comments

Savin Me Tab

   
-------------------------------------------------------------------------------
			     Nickelback - Savin' Me
-------------------------------------------------------------------------------
Tabbed by: Ryan Tessmer
Email: tess0055@d.umn.edu

Tuning: Drop D (DADGBE)

INTRO/VERSE:

Guitar 1
                A                                       B
e|------------------------------------|--------------------------------------|
B|------------------------------------|--------------------------------------|
G|------------------------------------|--------------------------------------|
D|--5-3-------5-3-5---5-3-------1-3---|----5-3-------5-3-5---5-3-------5-3---|
A|------3-1-1-------------3-1-1-----3-|--------3-1-1-------------3-1-1-----3-|
E|6-----------------3-----------------|--6-----------------3-----------------|

Play in A,B,A,B pattern as many times as needed

verse 1 : A,B,A,B,A
verse 2 : A,B,A  

e|---------------------------------------------------------------------------|
B|---------------------------------------------------------------------------|
G|---------------------------------------------------------------------------|
D|---5-3-------5-3---------------------------5-3-------1-3-------------------|
A|-------3-1-1-----3-----------------------------3-1-1-----3-----------------|
E|-6---------------------------------------6---------------------------------|
                    come please im callin                    hurry im fallin



Guitar 2 (listen for strumming pattern)

e|-6--3--1-----6--1---------6--1---------------------------------------------|
B|-6--3--1-----6--1---------6--1---------------------------------------------|
G|-8--5--3-----8--3---------8--3---------------------------------------------|
D|-8--5--3--3--8--3--3--X2--8--3--3------------------------------------------|
A|-6--3--1--3--6--1--3------6--1--3------------------------------------------|
E|-6--3--1--3--6--1--3------6--1--3------------------------------------------|



CHORUS: (listen for strumming pattern)
[ Tab from: http://www.guitartabs.cc/tabs/n/nickelback/savin_me_tab_ver_4.html ]
e|-6--3--1-----------6--1--------------6--1----------------------------------|
B|-6--3--1-----------6--1--------------6--1----------------------------------|
G|-8--5--3-----------8--3--------------8--3----------------------------------|
D|-8--5--3--3--X2----8--3--3--3-x-5-x--8--3--3-------------------------------|
A|-6--3--1--3--------6--1--3--3-x-5-x--6--1--3-------------------------------|
E|-6--3--1--3--------6--1--3--3-x-5-x--6--1--3-------------------------------|
   clean                    distortion


SOLO:

e|---------------------------------------------------------------------------|
B|---------------------------------------------------------------------------|
G|---------------------------------------------------------------------------|
D|-6/5/3/1/3--6/5/3/1/3--6/5/3/1/3-----1-5-3-3-1--6/5/3/1/3-----1-5---3------|
A|---------------------------------3-3---------------------3-3------3--------|
E|---------------------------------------------------------------------------|

e|---------------------------------------------------------------------------|
B|---------------------------------------------------------------------------|
G|---------------------------------------------------------------------------|
D|-3-3---5-5-5---6-6-6---8-8-8--18/17/15/13/15--18/17/15/13/15---------------|
A|-----3-------3-------3-----------------------------------------------------|
E|---------------------------------------------------------------------------|

e|---------------------------------------------------------------------------|
B|---------------------------------------------------------------------------|
G|-------------------------------------------------------------------------22|
D|-18/17/15/13/15-------13-17-15-15-------15-15-15----17-17-17-17/18-17-22---|
A|----------------15-15-------------15-15----------15------------------------|
E|---------------------------------------------------------------------------|

e|---------------------------------------------------------------------------|
B|---------------------------------------------------------------------------|
G|---------------------------------------------------------------------------|
D|---------------------------------------------------------------------------|
A|---------------------------------------------------------------------------|
E|---------------------------------------------------------------------------|


| /  slide up
| \  slide down
| h  hammer-on
| p  pull-off
| ~  vibrato
| +  harmonic
| x  Mute note
===============================================================================
Comments