Nickelback - Savin Me Chords & Tabs

 

Savin Me Chords & Tabs

Nickelback Chords & Tabs

Version: 2 Type: Tab 0 ratings
1 star 2 stars 3 stars 4 stars 5 stars
comments

Savin Me Tab

HEre is an awesome song and tab. this is of nickelbacks new album ALL THE RIGHT REASONS 
SAVIN ME - NICKELBACK



(intro/verse) – Add Reverb
CLEAN 
b |-----------------------------------------…
Ab|-----------------------------------------…
E |-----0--------2-0-2------0-----------0---…
B |---7-------------------7-----7-----3---0-…
Gb|-----------------------------------------…
B |-8------0-3-3--------5---------0-0-------…

…-----------------------------------------|
…-----------------------------------------|
…-----2-0-------2-0-2-----0----------0----|
…-----------------------7----7-----7---0--|
…-----------------------------------------|
…--1-----0-3-3--------5--------5-5--------|

(pre-chorus) – “Come please I’m calling…”

b |------------------------|
Ab|------------------------|
E |-----0--------2-0-2-----| 
B |---7--------------------|
Gb|------------------------|
B |-8------0-3-3-----------|

(chorus) – “Show me what it’s like…” 

b |--5-5-5-5-------------3-3-3-3---------------|
Ab|--5-5-5-5---6-6-6-6---3-3-3-3---8-8-8-8-----|
E |--7-7-7-7---5-5-5-5---5-5-5-5---7-7-7-7-----| x 2
B |--7-7-7-7---3-3-3-3---5-5-5-5---5-5-5-5-----|
Gb|--5-5-5-5---3-3-3-3---3-3-3-3---5-5-5-5-----|
B |------------3-3-3-3-------------5-5-5-5-----|

Then…

HEAVY DISTORTION – “Say it to me, say it to me…”
b |---------------------------------------------------|
Ab|---------------------------------------------------|
E |--10101010--5-5-5-5---7-7-7-7---7-7--7-7---10-10---| 
B |--8-8-8-8---3-3-3-3---5-5-5-5---7-7--7-7---10-10---|
Gb|--8-8-8-8---3-3-3-3---5-5-5-5---5-5--5-5---8--8----|
B |--8-8-8-8---3-3-3-3---5-5-5-5---0-0--0-0-----------|
                                  |____|
				Palm-muted

HEAVY DISTORTION – “Say it if it’s worth savin’ me…”
b |-------------------------------|
Ab|-------------------------------|
E |--10101010--5-5-5-5---7--------| 
B |--8-8-8-8---3-3-3-3---5--------|
Gb|--8-8-8-8---3-3-3-3---5--------|
B |--8-8-8-8---3-3-3-3---5--------|

(solo)
HEAVY DISTORTION
b |-------------------------------------------------------------------|
Ab|-------------------------------------------------------------------|
E |-------------------------------------------------------------------|
B |-7h8p7---------7h8p7---------7h8p7-------------------5/7-x—3/5-3-5-|
Gb|-------10-8-10-------10-8-10-------10-8-10-5-x-5-8-5---------------|
B |-------------------------------------------------------------------|

b |--------------------------------------------------------------|
Ab|--------------------------------------------------------------|
E |--------------------------------------------------------------|
B |-7h8p7-----------------5/7-5-777-7/8-88-8/10-1010-10/12-1212--|
Gb|-------10-8-10-5-x-5-8----------------------------------------|
B |--------------------------------------------------------------|
[ Tab from: http://www.guitartabs.cc/tabs/n/nickelback/savin_me_tab_ver_2.html ]
b |-------------------------------------------------------------------|
Ab|-10h11p10----------10h11p10----------10h11p10----------------------|
E |----------12-10-12----------12-10-12----------12-10-12--777-10-x---|
B |-------------------------------------------------------------------|
Gb|-------------------------------------------------------------------|
B |-------------------------------------------------------------------|

b |---------------------------------------------------------------|
Ab|--8h10-8-x-6h8-6-8-8/101010-10/11-1111—13h15p13----13-/20~-----|
E |------------------------------------------------15-------------|
B |---------------------------------------------------------------|
Gb|---------------------------------------------------------------|
B |---------------------------------------------------------------|
					
(Rhythm for solo)
HEAVY DISTORTION
b |---------------------------------------------------|
Ab|---------------------------------------------------|
E |--10101010--5-5-5-5---7-7-7-7---7-7--7-7---10-10---| 
B |--8-8-8-8---3-3-3-3---5-5-5-5---7-7--7-7---10-10---|
Gb|--8-8-8-8---3-3-3-3---5-5-5-5---5-5--5-5---8--8----|
B |--8-8-8-8---3-3-3-3---5-5-5-5---0-0--0-0-----------|
                                  |____|
				Palm-muted

b |----------------------------------|
Ab|----------------------------------|
E |--10101010--5-5-5-5---7-7-7-7-----| 
B |--8-8-8-8---3-3-3-3---5-5-5-5-----|
Gb|--8-8-8-8---3-3-3-3---5-5-5-5-----|
B |--8-8-8-8---3-3-3-3---5-5-5-5-----|


Both guitars (outro -> last chorus)
HEAVY DISTORTION – “Show me what it’s like…”
b |--------------------------------------------|
Ab|--------------------------------------------|
E |--7-7-7-7---5-5-5-5---5-5-5-5---7-7-7-7-----| x 2
B |--7-7-7-7---3-3-3-3---5-5-5-5---5-5-5-5-----|
Gb|--5-5-5-5---3-3-3-3---3-3-3-3---5-5-5-5-----|
B |--0-0-0-0---3-3-3-3-------------5-5-5-5-----|

“Say it to me, say it to me…”
b |---------------------------------------------------|
Ab|---------------------------------------------------|
E |--10101010--5-5-5-5---7-7-7-7---7-7--7-7---10-10---| 
B |--8-8-8-8---3-3-3-3---5-5-5-5---7-7--7-7---10-10---|
Gb|--8-8-8-8---3-3-3-3---5-5-5-5---5-5--5-5---8--8----|
B |--8-8-8-8---3-3-3-3---5-5-5-5---0-0--0-0-----------|
                                  |____|
				Palm-muted

“Say it if it’s worth savin’ me…”
b |----------------------------------|
Ab|----------------------------------|
E |--10101010--5-5-5-5---7-7-7-7-----| 
B |--8-8-8-8---3-3-3-3---5-5-5-5-----|
Gb|--8-8-8-8---3-3-3-3---5-5-5-5-----|
B |--8-8-8-8---3-3-3-3---5-5-5-5-----|

“Say it to me, say it to me…”
b |---------------------------------------------------|
Ab|---------------------------------------------------|
E |--10101010--5-5-5-5---7-7-7-7---7-7--7-7---10-10---| 
B |--8-8-8-8---3-3-3-3---5-5-5-5---7-7--7-7---10-10---|
Gb|--8-8-8-8---3-3-3-3---5-5-5-5---5-5--5-5---8--8----|
B |--8-8-8-8---3-3-3-3---5-5-5-5---0-0--0-0-----------|
                                  |____|
				Palm-muted

“Say it if it’s worth savin’ me…”
b |-------------------------------|
Ab|-------------------------------|
E |--10101010--5-5-5-5---7--------| 
B |--8-8-8-8---3-3-3-3---5--------|
Gb|--8-8-8-8---3-3-3-3---5--------|
B |--8-8-8-8---3-3-3-3---5--------|

Song structure:

(intro) x 1
(verse) x 1
(verse + pre-chorus) x 1
(chorus) x 1
(verse) x 1
(verse + pre-chorus) x 1
(chorus) x 1
(solo) x 1 + (Rhythm) x 2
(intro + pre-chorus) x 1 
(outro) x 1

GOT ANY COMMENTS E-MAIL ME AT metis-juice39@hotmail.com
Comments