Nickelback - Rockstar Chords & Tabs

 

Rockstar Chords & Tabs

Nickelback Chords & Tabs

Version: 1 Type: Tab

Rockstar Tab

   
his is my first Tab but I think this is acurate.I play it like this solo with an 
You will have to match rythyms and song structure but otherwise the chords should be correct, 
comments are welcome......good luck


Verse Riff   (1st verse play 4x)
I'm Through with .....               Botoom of the ninth......
(each measure should be doubled, ex. G,G,C,C.....)
     G                                   C

|----------------------------------|-----0-----0-----0-----0-----0----|
|-----3-----3-----3-----3-----3----|-----1-----1-----1-----1-----1----|
|-----0-----0-----0-----0-----0----|-----0-----0-----0-----0-----0----|
|-----0-----0-----0-----0-----0----|-----2-----2-----2-----2-----2----|
|----------------------------------|-----3-----3-----3-----3-----3----|
|-----5-----5-----5-----5-----5----|----------------------------------|

This Life ain't......                 i wanted to be.......


      F                                  G

|-----1-----1-----1-----1-----1----|----------------------------------|
|-----1-----1-----1-----1-----1----|-----3-----3-----3-----3-----3----|
|-----2-----2-----2-----2-----2----|-----0-----0-----0-----0-----0----|
|-----3-----3-----3-----3-----3----|-----0-----0-----0-----0-----0----|
|-----3-----3-----3-----3-----3----|----------------------------------|
|----------------------------------|-----5-----5-----5-----5-----5----|


Pre Chorus

I'm Gonna Trade This Life........... I'll even cut my hair....

      A/C (x2)                               C(x2)

|----------------------------------|-----0-----0-----0-----0-----0----|
|-----1-----1-----1-----1-----1----|-----1-----1-----1-----1-----1----|
|-----0-----0-----0-----0-----0----|-----0-----0-----0-----0-----0----|
|-----3-----3-----3-----3-----3----|-----2-----2-----2-----2-----2----|
|-----3-----3-----3-----3-----3----|-----3-----3-----3-----3-----3----|
|----------------------------------|----------------------------------|

Chorus Riff (1st time play riff 2x)


|----------------------------------|---------------------------------|
|-----3-----3-----3-----3-----3----|------3------3------3------3-----|
|-----0-----0-----0-----0-----0----|------0------0------0------0-----|
|-----0-----0-----0-----0-----0----|------0------0------0------0-----|
|----------------------------------|---------------------------------|
|-----5-----5-----5-----5-----5----|------5------5------5------5-----|


|---------------------------------|---------------------------------|
|----1----1----1----1----1----1---|------1------1------1------1-----|
|----1----1----1----1----1----1---|------1------1------1------1-----|
|----3----3----3----3----3----3---|------3------3------3------3-----|
|----3----3----3----3----3----3---|------3------3------3------3-----|
|---------------------------------|---------------------------------|

[ Tab from: http://www.guitartabs.cc/tabs/n/nickelback/rockstar_tab.html ]
|------0------0------0------0-----|------0------0------0------0-----|
|------1------1------1------1-----|------1------1------1------1-----|
|------0------0------0------0-----|------0------0------0------0-----|
|------2------2------2------2-----|------2------2------2------2-----|
|------3------3------3------3-----|------3------3------3------3-----|
|---------------------------------|---------------------------------|


|---------------------------------|------1------1------1------1-----|
|---------------------------------|------1------1------1------1-----|
|---------------------------------|------2------2------2------2-----|
|------1------1------1------1-----|------3------3------3------3-----|
|------1------1------1------1-----|---------------------------------|
|------1------1------1------1-----|---------------------------------|

Chorus Ending

Hey yea.....
    A/C                                  C

|----------------------------------|-----0-----0-----0-----0-----0----|
|-----1-----1-----1-----1-----1----|-----1-----1-----1-----1-----1----|
|-----0-----0-----0-----0-----0----|-----0-----0-----0-----0-----0----|
|-----3-----3-----3-----3-----3----|-----2-----2-----2-----2-----2----|
|-----3-----3-----3-----3-----3----|-----3-----3-----3-----3-----3----|
|----------------------------------|----------------------------------|
 G
|----------------------------------|----------------------------------|
|-----3----------------------------|----------------------------------|
|-----0----------------------------|----------------------------------|
|-----0----------------------------|----------------------------------|
|----------------------------------|----------------------------------|
|-----5----------------------------|----------------------------------|

Verse(play riff 2x)
Pre-Chorus
Chorus(play riff 3x)

Interlude


|---------------------------------|---------------------------------|
|---------------------------------|---------------------------------|
|---------------------------------|---------------------------------|
|------1------1------1------1-----|------1------1------1------1-----|
|------1------1------1------1-----|------1------1------1------1-----|
|------1------1------1------1-----|------1------1------1------1-----|


|---------------------------------|---------------------------------|
|------1------1------1------1-----|------1------1------1------1-----|
|------1------1------1------1-----|------1------1------1------1-----|
|------3------3------3------3-----|------3------3------3------3-----|
|------3------3------3------3-----|------3------3------3------3-----|
|---------------------------------|---------------------------------|


|------------------------------|------------------------------|
|------------------------------|------------------------------|
|------------------------------|------------------------------|
|-------1-------1-------1------|-------1-------1-------1------|
|-------1-------1-------1------|-------1-------1-------1------|
|-------1-------1-------1------|-------1-------1-------1------|


|---------1---------1--------|---------0---------0--------|
|---------1---------1--------|---------1---------1--------|
|---------2---------2--------|---------0---------0--------|
|---------3---------3--------|---------2---------2--------|
|----------------------------|---------3---------3--------|
|----------------------------|----------------------------|


Chorus(play riff 3x)
Chorus ending 2x(strumming the g through the frist time)