Nickelback - Photograph Chords & Tabs

 

Photograph Chords & Tabs

Nickelback Chords & Tabs

Version: 1 Type: Tab 11 ratings
1 star 2 stars 3 stars 4 stars 5 stars
comments

Photograph Tab

   
Intro 

Ebsus 
e|-6--6--|
B|-6--8--|
G|-8--8--|
D|-8--8--|
A|-6--6--|
D|-------|

Verse 1 & Verse 2 

Ebsus Eb Ab     Dbsus Db Gb
e|-6--6--(6)(x)-|--4--4--(4)(x)--|
B|-6--8---6--6--|--4--6---4--4---|
G|-8--8---7--7--|--6--6---5--5---| 
D|-8--8---8--8--|--6--6---6--6---|
A|-6--6---8--8--|--4--4---6--6---|
D|--------------|----------------|

                  Chorus 

e|---------|-----------|---------|--------|
B|---------|-----------|---------|--------|
G|--8-10-8-|-(10)10----|--6-8-6--|--8-8-8-| 
D|--8-8--8-|--8--10-8--|--6-6-6--|--6-8-6-|
A|--6-6--6-|--8--8--8--|--4-4-4--|--6-6-6-|
D|---------|--8--8--8--|---------|--6-6-6-|



      
    
e|-----8-----8---|------------------|----------|
B|--6-----6------|--7--6----7--6----|-----6----|
G|---------------|-------8-------8--|--8----6--|
D|---------------|------------------|----------|
A|---------------|------------------|----------|
D|---------------|------------------|----------|

Verse 1 & Verse 2 

Ebsus Eb Ab     Dbsus Db Gb
e|-6--6--(6)(x)-|--4--4--(4)(x)--|
B|-6--8---6--6--|--4--6---4--4---|
G|-8--8---7--7--|--6--6---5--5---| 
D|-8--8---8--8--|--6--6---6--6---|
A|-6--6---8--8--|--4--4---6--6---|
D|--------------|----------------|
[ Tab from: http://www.guitartabs.cc/tabs/n/nickelback/photograph_tab.html ]
              Chorus

e|---------|-----------|---------|--------|
B|---------|-----------|---------|--------|
G|--8-10-8-|-(10)10----|--6-8-6--|--8-8-8-| 
D|--8-8--8-|--8--10-8--|--6-6-6--|--6-8-6-|
A|--6-6--6-|--8--8--8--|--4-4-4--|--6-6-6-|
D|---------|--8--8--8--|---------|--6-6-6-|

           Bridge no vocals

Ebsus Eb Ab     
e|-6--6--(4)(4)-|
B|-6--8---4--6--|
G|-8--8---6--6--| 
D|-8--8---6--6--|
A|-6--6---4--4--|
D|--------------|

         Bridge with vocals

Ebsus Eb Ab     Dbsus Db Gb
e|-6--6--(6)(x)-|--4--4--(4)(x)--|
B|-6--8---6--6--|--4--6---4--4---|
G|-8--8---7--7--|--6--6---5--5---|
D|-8--8---8--8--|--6--6---6--6---|
A|-6--6---8--8--|--4--4---6--6---|
D|--------------|----------------|

   Ebsus  Ab       Dbsus  Gb 
e|------6----(6)-|--4---no--|
B|-----6-----6---|--4-------|
G|----8-----7----|--6---gui-|
D|---8-----8-----|--6---tar-|
A|-6-----8-------|--4-------|
D|---------------|----------|

             Outro 

Verse 1 & Verse 2 

Ebsus Eb Ab     Dbsus Db Gb
e|-6--6--(6)(x)-|--4--4--(4)(x)--|
B|-6--8---6--6--|--4--6---4--4---|
G|-8--8---7--7--|--6--6---5--5---| 
D|-8--8---8--8--|--6--6---6--6---|
A|-6--6---8--8--|--4--4---6--6---|
D|--------------|----------------|
Comments