Nickelback - Never Again Chords & Tabs

 

Never Again Chords & Tabs

Nickelback Chords & Tabs

Version: 3 Type: Tab 1 rating
1 star 2 stars 3 stars 4 stars 5 stars
comments

Never Again Tab

#----------------------------------PLEASE NOTE---------------------------------#
#This file is the author's own work and represents their interpretation of the #
#song. You may only use this file for private study, scholarship, or research. #
#------------------------------------------------------------------------------##


Nickleback - Never again
Tuning: Drop D
Tempo: aprox 80-90 bpm
Tabed by: Nick, norconick@hotmail.com

Other tabs I see for this song aren't quite right or they're missing 
stuff I think. I've also included the rhythem timing which will come in
handy if you're learning it with a band, since it's sort of irregular 
compared to the average rock song you might learn. Theres some sticatos 
 and rests i didn't mension, but if you listen to the song they're quite obvious.

Riff 1 (intro riff)
-----------------------------------------------------------------
-----------------------------------------------------------------
---7-7-7---101010--5-5-5-----------7-7-7---101010--5-5-5---------
---0-0-0---0-0-0---0-0-0---3-3-5---0-0-0---0-0-0---0-0-0---5-5-3-
---5-5-5---8-8-8---3-3-3---3-3-5---5-5-5---8-8-8---3-3-3---5-5-3-
---------------------------3-3-5---------------------------5-5-3-
 1 + 2 + 3 + 4 + 1 + 2 + 3 + 4 + 1 + 2 + 3 + 4 + 1 + 2 + 3 + 4 +

Riff 2 (pre chorus)
-----------------------------------------------------------------
-----------------------------------------------------------------
-5-5-5-5-5-5-5-5-5-5-5-5-5-5-5-5---------------------------------
-5-5-5-5-5-5-5-5-5-5-5-5-5-5-5-5-5-5-5-5-5-5-5-5-5-5-5-5-5-5-5-5-
-3-3-3-3-3-3-3-3-3-3-3-3-3-3-3-3-5-5-5-5-5-5-5-5-5-5-5-5-5-5-5-5-
---------------------------------5-5-5-5-5-5-5-5-5-5-5-5-5-5-5-5-
 1 + 2 + 3 + 4 + 1 + 2 + 3 + 4 + 1 + 2 + 3 + 4 + 1 + 2 + 3 + 4 +

[ Tab from: http://www.guitartabs.cc/tabs/n/nickelback/never_again_tab_ver_3.html ]
Riff 3 (chorus)
 Been there... not like this
---------------------------------
-----(play 3 times)--------------
---7-7-7---5-5-5-----------------(same rhythem pattern as intro)
---7-7-7---5-5-5---5-5-5---3-3-3-
---5-5-5---3-3-3---5-5-5---3-3-3-
-------------------5-5-5---3-3-3-
 1 + 2 + 3 + 4 + 1 + 2 + 3 + 4 +



Riff 4 (breakdown, 1st time)

--------play 3 times-------------|---play on 4th time-------------------
---------------------------------|--------------------------------------
---------------------------------|--------------------------------------
---3-3-0---3-3-0---3-3-0-5-3-5-6-|-3-3-0---3-3-0---3-3-0-5-3-5-6-5-3-5-0
---3-3-0---3-3-0---3-3-0-5-3-5-6-|-3-3-0---3-3-0---3-3-0-5-3-5-6-5-3-5-0
---3-3-0---3-3-0---3-3-0-5-3-5-6-|-3-3-0---3-3-0---3-3-0-5-3-5-6-5-3-5-0
 1 + 2 + 3 + 4 + 1 + 2 + 3 + 4 + 1 + 2 + 3 + 4 + 1 + 2 + 3 + 4 + 1 + 2 +


Riff 4 (breakdown, 2nd time)
--------play 4 times-------------|
---------------------------------|
---------------------------------|
---3-3-0---3-3-0---3-3-0-5-3-5-6-|  sticato the Ds (zeros) on the up
---3-3-0---3-3-0---3-3-0-5-3-5-6-|  beats of 2 and 4 in this riff and in 
---3-3-0---3-3-0---3-3-0-5-3-5-6-|  the same part of "break down 1"
 1 + 2 + 3 + 4 + 1 + 2 + 3 + 4 + 1

Riff 5 (bridge)

                                                     . (skip this ending)
---------------------------------------------------------------
---------------------------------------------------------------
---------------------------------------------------------------
------------------------6-3-5-0-------------------------6-3-5-0
------------------------6-3-5-0-------------------------6-3-5-0
------------------------6-3-5-0-------------------------6-3-5-0
3 + 4 + 1 + 2 + 3 + 4 + 1 + 2 + 3 + 4 + 1 + 2 + 3 + 4 + 1 + 2 + 


Riff 6 (fill - during the last verse)
     ...she'll find out how f&@#ing
       |-----------2--------------|
       |-----------2--------------|
       |-----------2--------------|
       |-----------2--------------|
       |-----------2--------------|
       |-----------2--------------|
       2 + 3 + 4 + 1 + 2 + 3 + 4 + 

Verse (bass)
Intro x2
Verse (bass)
Prechorus
Intro 

Verse (bass)
Prechorus
Chorus
Prechorus
Intro

Verse
Prechorus
Chorus
Prechorus

Breakdown 1 
Bridge
Breakdown 2

Verse (bass)
fill
Prechorus
Chorus
Comments