Nickelback - Mistake Chords & Tabs

 

Mistake Chords & Tabs

Nickelback Chords & Tabs

Version: 5 Type: Tab 0 ratings
1 star 2 stars 3 stars 4 stars 5 stars
comments

Mistake Tab

----------------------------------------------------------------------------
			     "Mistake" - Nickelback
----------------------------------------------------------------------------
Tabbed by: Ryan Tessmer
Email: t_diddy29@hotmail.com

Tuning:standard

This is my first song ever tabbed, but it's nearly 100% correct. I tabbed this from the
live acoustic version of the song from the "Nickelback Live At Home" DVD. Both Chad and
Ryan are playing guitar and thus this is a two guitar song. But I've made it one guitar
version. I also added pieces of the lyrics so it would be easier to follow along with.
The full lyrics are at the bottom. 

Enjoy! And please email me with any comments or questions, they are greatly
appreciated. 


INTRO:

e|--------------------------------------------------------------------------
B|--------------------------------------------------------------------------
G|-----0-----0-----0-----0-------0-----0-----0-0-0-----0-----0-----0-----0--
D|---5-----5-----5-----3---3---2-----2-----2---2-4---5-----5-----5-----3---3
A|-6-----6-----6-----4-------3-----3-----3-----3-5-6-----6-----6-----4------
E|--------------------------------------------------------------------------

e|-----------0-----0--------------------------------------------------------
B|-------3-----3---3--------------------------------------------------------
G|-----0---0-----0-0-0-0----------------------------------------------------
D|---2-------------2-2-4----------------------------------------------------
A|-3---------------3-3-5----------------------------------------------------
E|--------------------------------------------------------------------------
                      So as I   

VERSE 1:

e|--------------------------------------------------------------------------
B|--------------------------------------------------------------------------
G|-----0-----0-----0-----0-------0-----0-----0-0-0-----0-----0-----0-----0--
D|---5-----5-----5-----3---3---2-----2-----2---2-4---5-----5-----5-----3---3
A|-6-----6-----6-----4-------3-----3-----3-----3-5-6-----6-----6-----4------
E|--------------------------------------------------------------------------
sift and drift.......that plagues...........would you ever.....I've gone 

e|-----------0-----0--------------------------------------------------------
B|-------3-----3---3--------------------------------------------------------
G|-----0---0-----0-0--------------------------------------------------------
D|---2-------------2--------------------------------------------------------
A|-3---------------3--------------------------------------------------------
E|--------------------------------------------------------------------------
  away...............I'm over the wall

CHORUS:

e|--------------------------------------------------------------------------
B|-----3---------3--------------------------------------------------------
G|-------3---------3-------2-------2-------0-------0-------0-------0--------
D|---3---------3---------3---3---3---3---1---1---1---1---1---1---1---1------
A|-1-------1-1-------1-3-------3-------1-------1-------1-------1------------
E|--------------------------------------------------------------------------
           Over the hill      Over at your place                I'm over the

e|--------------------------------------------------------------------------
B|-----3---------3----------------------------------------------------------
G|-------3---------3-------2-------2-------0-------0---------0-------0-----0
D|---3---------3---------3---3---3---3---1---1---1---1-----3---3---2-----2--
A|-1-------1-1-------1-3-------3-------1-------1-------1-4-------3-----3----
E|--------------------------------------------------------------------------
  safetys    over the phone.....over the rage............what a mistake.....

e|-----------------------------------------------0-----0--------------------
B|-------------------------------------------3-----3---3--------------------
G|-----0-0-0-----0-----0-----0-----0-------0---0-----0-0-0-0----------------
D|---2---2-4---5-----5-----5-----3---3---2-------------2-2-4----------------
A|-3-----3-5-6-----6-----6-----4-------3---------------3-3-5----------------
E|--------------------------------------------------------------------------
                                                          When you 

VERSE 2:

e|--------------------------------------------------------------------------
B|--------------------------------------------------------------------------
G|-0-0---0-0---0-0---0-0---0-0---0-0---0-0---0-0-----0-----0-----0-----0----
D|-5-5---5-5---5-5---3-3---2-2---2-2---2-2---2-4---5-----5-----5-----3---3--
A|-6-6---6-6---6-6---4-4---3-3---3-3---3-3---3-5-6-----6-----6-----4--------
E|--------------------------------------------------------------------------
  lost the stones....the ones I found to.....when all the..........get fired

e|-----------0-----0--------------------------------------------------------
B|-------3-----3---3--------------------------------------------------------
G|-----0---0-----0-0--------------------------------------------------------
D|---2-------------2--------------------------------------------------------
A|-3---------------3--------------------------------------------------------
E|--------------------------------------------------------------------------
  ............      I'm over the wall

CHORUS:

e|--------------------------------------------------------------------------
B|-----3---------3----------------------------------------------------------
G|-------3---------3-------2-------2-------0-------0-------0-------0--------
D|---3---------3---------3---3---3---3---1---1---1---1---1---1---1---1------
A|-1-------1-1-------1-3-------3-------1-------1-------1-------1------------
E|--------------------------------------------------------------------------
            Over the hill   Over at your place                 I'm over the

e|--------------------------------------------------------------------------
B|-----3---------3----------------------------------------------------------
G|-------3---------3-------2-------2-------0-------0---------0-------0-----0
D|---3---------3---------3---3---3---3---1---1---1---1-----3---3---2-----2--
A|-1-------1-1-------1-3-------3-------1-------1-------1-4-------3-----3----
E|--------------------------------------------------------------------------
  safetys    over the phone.....over the rage............what a mistake.....
[ Tab from: http://www.guitartabs.cc/tabs/n/nickelback/mistake_tab_ver_5.html ]
e|--------------------------------------------------------------------------
B|--------------------------------------------------------------------------
G|-----0-0-0-----0-----0-----0-----0-------0-----0-----0-0-0------0-----0---
D|---2---2-4---5-----5-----5-----3---3---2-----2-----2---2-4----5-----5-----
A|-3-----3-5-6-----6-----6-----4-------3-----3-----3-----3-5--6-----6-------
E|--------------------------------------------------------------------------

                                   INTERLUDE:

e|-------------------0-----0-----0------------------------------------------
B|-------------------3-----3-----3------------------------------------------
G|-----0-----0-------0-----0-----0--0-0---0-0---0-0---0-0---0-0---0-0---0-0-
D|---5-----3---3---2-2---2-2---2-2--2-4---5-5---5-5---5-5---3-3---2-2---2-2-
A|-6-----4-------3---3-3---3-3---3--3-5---6-6---6-6---6-6---4-4---3-3---3-3-
E|--------------------------------------------------------------------------
                                    what a mistake          what a mistake

e|----------------------------------------------0-----0---------------------
B|------------------------------------------3-----3---3---------------------
G|-0-0--0-0-----0-----0-----0-----0-------0---0-----0-0---------------------
D|-2-2--2-4---5-----5-----5-----3---3---2-------------2---------------------
A|-3-3--3-5-6-----6-----6-----4-------3---------------3---------------------
E|--------------------------------------------------------------------------
        what a mistake        what a mistake            I've never been lost

VERSE 3:

e|--------------------------------------------------------------------------
B|--------------------------------------------------------------------------
G|-3-3-3-3-3-3-3-3--2-2-2-2-2-2-2-2--0-0-0-0-0-0-0-0-0-0-0-0-0-0-0-0--------
D|-3-3-3-3-3-3-3-3--3-3-3-3-3-3-3-3--1-1-1-1-1-1-1-1-1-1-1-1-1-1-1-1--------
A|-1-1-1-1-1-1-1-1--3-3-3-3-3-3-3-3--1-1-1-1-1-1-1-1-1-1-1-1-1-1-1-1--------
E|--------------------------------------------------------------------------
           I've never.......it makes no difference.........there's never...

e|--------------------------------------------------------------------------
B|--------------------------------------------------------------------------
G|-3-3-3-3-3-3-3-3--2-2-2-2-2-2-2-2--0-0-0-0--------------------------------
D|-3-3-3-3-3-3-3-3--3-3-3-3-3-3-3-3--1-1-1-1--------------------------------
A|-1-1-1-1-1-1-1-1--3-3-3-3-3-3-3-3--1-1-1-1--------------------------------
E|--------------------------------------------------------------------------
   ........that never.......I've........kept     I'm over the wall

INTERLUDE: (chad and ryan)

e|--------------------------------------------------------------------------
B|--------------------------------------------------------------------------
G|-3-3-3-3-3-3-3-2-2-2-2-2-2-2-0-0-0-0-0-0-0-0-0-0-0-0-0-0------------------
D|-3-3-3-3-3-3-3-3-3-3-3-3-3-3-1-1-1-1-1-1-1-1-1-1-1-1-1-1------------------
A|-1-1-1-1-1-1-1-3-3-3-3-3-3-3-1-1-1-1-1-1-1-1-1-1-1-1-1-1------------------
E|--------------------------------------------------------------------------
          Over the hill   Over at your.....I just can't...            

e|--------------------------------------------------------------------------
B|--------------------------------------------------------------------------
G|-3-3-3-3-3-3-3-2-2-2-2-2-2-2-0-0-0-0-0-0-0--------------------------------
D|-3-3-3-3-3-3-3-3-3-3-3-3-3-3-1-1-1-1-1-1-1--------------------------------
A|-1-1-1-1-1-1-1-3-3-3-3-3-3-3-1-1-1-1-1-1-1--------------------------------
E|--------------------------------------------------------------------------
  Pulling on the..................I'm always 

e|--------------------------------------------------------------------------
B|--------------------------------------------------------------------------
G|-0-0-0------0-------0-----0-----0-0-0-----0-----0-----0-----0-------------
D|-5-5-5----3---3---2-----2-----2---2-4---5-----5-----5-----3---3-----------
A|-6-6-6--4-------3-----3-----3-----3-5-6-----6-----6-----4-----------------
E|--------------------------------------------------------------------------
   .......what a mistake....          mistake

                          OUTRO:

e|-----------0------0-------------------------------------------------------
B|-------3-----3----3-------------------------------------------------------
G|-----0---0-----0--0-0-0-----0-----0-----0-----0-------0-----0-----0-0-0---
D|---2--------------2-2-4---5-----5-----5-----3---3---2-----2-----2---2-4---
A|-3----------------3-3-5-6-----6-----6-----4-------3-----3-----3-----3-5---
E|--------------------------------------------------------------------------
                      so as I sift.........that plagues from day......would.

e|-------------------------------------0-----0------------------------------
B|---------------------------------3-----3---3------------------------------
G|-----0-----0-----0-----0-------0---0-----0-0------------------------------
D|---5-----5-----5-----3---3---2-------------2------------------------------
A|-6-----6-----6-----4-------3---------------3------------------------------
E|--------------------------------------------------------------------------
 ..ever really notice I've gone away...........

============================================================================
LYRICS
Verse 1:
As I sift and drift through bullshit,
That plagues from day to day,
Would you ever really notice I've gone away?

Chorus:
I'm over the wall,
Over the hill,
Over at your place,
I'm over the safetys,
Over the phone calls,
Over the rage,
What a mistake.

Verse 2:
When you've lost the stones to throw,
The ones I found to make a fire,
When all the lonely souls that say so get fired.

Chorus

Interlude:
What a mistake,
What a mistake,
What a mistake,
What a mistake,

Verse 3:
I've never been lost,
I've never been found,
And it makes no difference, if I'm around,
There's never been words, that never made actions,
I've never made promises that I've never kept.

Chorus/Interlude:
(By both Chad and Ryan)
I'm over the wall,
Over the hill,
Over at your place,
I just can't seem to get out of this,
Pulling on the threads,
I'm always pulling on the threads,
I'm always pulling on the threads,
I'm always,
What a mistake, mistake.

Outro:
So as I sift and drift through bullshit,
That plagues from day to day,
Would you ever really notice I've gone away?
============================================================================
Comments