Nickelback - Mistake Chords & Tabs

 

Mistake Chords & Tabs

Nickelback Chords & Tabs

Version: 1 Type: Tab 0 ratings
1 star 2 stars 3 stars 4 stars 5 stars
comments

Mistake Tab

   
Song:Mistake
Artist:Nickelback (cover from "bick wreck")
Tabbed by:Andreas Puschmann

Alrigiht, I am 100% sure that this tab is correct. This is what Ryan played
on the concerts(Silver side tour)! I see this on a concert in Köln (Germany).


Tuning:D-A-D-G-B-e. 
Key:

h-hammer on
p-pull off
-slide up
/-slide down
~ - vibrato
( )-let ring

Intro,Verse (Ryan): 
[ Tab from: http://www.guitartabs.cc/tabs/n/nickelback/mistake_tab.html ]
e----------------------------------------------------------------------
B---------3--3---------3--3-------3--3-------------------3--3-----3--2-
G---------3--3---------3--3-------3--3---------0---------0--0-----0--0-
D------5--5--5------5--5--5----5--5--5-------3---3----2--2--2---2-2--2-
A----6----6--6----6----6--6--6----6--6---0-4--------3----3--3--3--3--3-
D----------------------------------------------------------------------

e---------------------
B-------3--3----3---3-
G-------0--0----0---3-
D-----2-2--2----2---3-
A---3---3--3----3---5-
D---------------------



e-------------------------------------------------------------0-----0--
B---------3--3---------3--3-------3--3--------------------3-----3---3--
G---------3--3---------3--3-------3--3---------0--------0---0-----0-0--
D------5--5--5------5--5--5----5--5--5-------3---3----2-------------2--
A----6----6--6----6----6--6--6----6--6---0-4--------3---------------3--
D----------------------------------------------------------------------


Chorous:

e-------------------------------------
B-------------------------------------
G--3----------------------------------
D--3---3---1--------------------------
A--1---3---1--------------------------
D------3---1--------------------------



Comments