Nickelback - Love Will Keep Us Together Chords & Tabs

 

Love Will Keep Us Together Chords & Tabs

Nickelback Chords & Tabs

Version: 1 Type: Tab 0 ratings
1 star 2 stars 3 stars 4 stars 5 stars
comments

Love Will Keep Us Together Tab

   
-------------------------------------------------------------------------------
			    LOVE WILL KEEP US TOGETHER - NICKELBACL
-------------------------------------------------------------------------------
Tabbed by:Nickelback_fan
Email:metis-juice39@hotmail.com

Tuning: Drop D tuning

i found this song while downloading. its cover song by nickelback

Intro/outro
e|---------------------------|
B|---------------------------|
G|---------------------------|
D|--7-7---7-7---7-7---7-7----|
A|--7-7---7-7---7-7---7-7----|
D|--7-7---7-7---7-7---7-7----|

Verse 1
e|-------------------------------------|
B|-------------------------------------|
G|-------------------------------------|
D|--777777777-555555555-77777777777----|
A|--777777777-555555555-77777777777----|
D|--777777777 555555555 77777777777----|
 xxxxxxxxxxxxxxxxxxxxxxxxxxxxxx

 verse 2 Strum: easy to figure out
e|------------------------------------|
B|------------------------------------|
G|------------------------------------|
D|--7-7-7-7-7-7-7-7-7-7-7-5-5-5-5-----|
A|--7-7-7-7-7-7-7-7-7-7-7-5-5-5-5-----|
D|--7-7-7-7-7-7-7-7-7-7-7-5-5-5-5-----|
[ Tab from: http://www.guitartabs.cc/tabs/n/nickelback/love_will_keep_us_together_tab.html ]
Chrous
e|---------------------------------------------------------------------------|
B|---------------------------------------------------------------------------|
G|---------------------------------------------------------------------------|
D|--7--7--7--7--7--7--7--5--5--5--5--5--5--5--5--3--3--3--3--3---5-5-5-5-----|
A|--7--7--7--7--7--7--7--5--5--5--5--5--5--5--5--3--3--3--3--3---5-5-5-5-----|
D|--7--7--7--7--7--7--7--5--5--5--5--5--5--5--5--3--3--3--3--3---5-5-5-5-----|

after  1st chrous strum verse 2: stop before you get to 5

now go back to verse 1

then verse 2

chrous

after 2nd chruos strum verse 2

Bridge
e|------------------------------------------------------------------|
B|------------------------------------------------------------------|
G|------------------------------------------------------------------|
D|--7-7-7-7--5-5-5-5--3-3-3-3--5-5-5-5--7-7-7-7--5-5-5-5--3-3-3-3---|
A|--7-7-7-7--5-5-5-5--3-3-3-3--5-5-5-5--7-7-7-7--5-5-5-5--3-3-3-3---|
D|--7-7-7-7--5-5-5-5--3-3-3-3--5-5-5-5--7-7-7-7--5-5-5-5--3-3-3-3---|

after bridge play intro

verse 1

verse 2

Chrous

after chrous strum verse 2: stop before you get to 5

chrous

after last chrous strum verse 2 like before stop before u get to 5

outro


AND THATS IT SO HAVE ANY COMMENTS FEEL FREE TO E-MAIL ME, BUT TAKE IT EASY ON ME ITS WAS MY FIRST TAB.

 /  slide up
| \  slide down
| h  hammer-on
| p  pull-off
| ~  vibrato
| +  harmonic
| x  Mute note
Comments