Nickelback - Little Friend Chords & Tabs

 

Little Friend Chords & Tabs

Nickelback Chords & Tabs

Version: 1 Type: Tab 0 ratings
1 star 2 stars 3 stars 4 stars 5 stars
comments

Little Friend Tab

   
Artist: Nickelback
Song: Little Friend
Album: Curb
Written by: Chad Kroager
Tuning: Drop-D (D A D G B e)

This is a kickass song! I love it.  Its really easy to play. It takes no time at all to get it down. Enjoy.

Snake

Intro: Riff 1 (Main Riff)
			  (8x)
e|---------------------------|
B|---------------------------|
G|--------------------------*|
D|----0-0---0-0-0---0-3-----*|
A|----0-0---0-0-0---0-3------|
D|----0-0---0-0-0---0-3------|
  
Verse 1: With Riff 1
			  (8X)
e|---------------------------|
B|---------------------------|
G|--------------------------*|
D|----0-0---0-0-0---0-3-----*|
A|----0-0---0-0-0---0-3------|
D|----0-0---0-0-0---0-3------|
  
Chorus: Riff 2:   
					   (1x)
e|--------------------------------------------|
B|--------------------------------------------|
G|--------------------------------------------|
D|--8-8-8-8-8-8-8-8--10-10-10-10-10-10-10-10--|
A|--8-8-8-8-8-8-8-8--10-10-10-10-10-10-10-10--|
D|--8-8-8-8-8-8-8-8--10-10-10-10-10-10-10-10--|
        "And now I   found a little friend"


 

Interlude: Riff 1 (4x)

Solo:  
e|------------------------------------------------------------------------------|
B|------------------------------------------------------------------------------|
G|---12b(14)-12--12b(14)--10v----------------------------10h12p10---12b(14)*----|
D|-------------------------------12v-------------10h12--------------------------|
A|----------------------------------------10------------------------------------|
D|------------------------------------------------------------------------------|
  With Riff 3 (4x)

Bridge: Riff 3
				 (8x)
e|-----------------------------------|
B|-----------------------------------|
G|-------------7/5-------------------|
D|----0---0-0--7/5--3--3--3--3h5-3---|
A|----0---0-0--5/3--3--3--3--3h5-3---|
D|----0---0-0-------3--3--3--3h5-3---|
      

Riff 4:
e|------------------------------------|
B|------------------------------------|
G|------------------------------------|
D|--8-8-8-8-8-8-8-8-8-8-8-8-8-8-8-8---|
A|--8-8-8-8-8-8-8-8-8-8-8-8-8-8-8-8---|
D|--8-8-8-8-8-8-8-8-8-8-8-8-8-8-8-8---|
    "And then I know I told her"
[ Tab from: http://www.guitartabs.cc/tabs/n/nickelback/little_friend_tab.html ]
e|---------------------------------------------------|
B|---------------------------------------------------|
G|---------------------------------------------------|
D|--10-10-10-10-10-10-10-10-10-10-10-10-10-10-10-10--|
A|--10-10-10-10-10-10-10-10-10-10-10-10-10-10-10-10--|
D|--10-10-10-10-10-10-10-10-10-10-10-10-10-10-10-10--|
     "That she won't get much older"

e|--------------------------------------------|
B|--------------------------------------------|
G|--------------------------------------------|
D|--8-8-8-8-8-8-8-8--10-10-10-10-10-10-10-10--|
A|--8-8-8-8-8-8-8-8--10-10-10-10-10-10-10-10--|
D|--8-8-8-8-8-8-8-8--10-10-10-10-10-10-10-10--|
        "And now I   found a little friend" 

After this, play Riff 1 (4x).

Riff 4b:
e|------------------------------------|
B|------------------------------------|
G|------------------------------------|
D|--8-8-8-8-8-8-8-8-8-8-8-8-8-8-8-8---|
A|--8-8-8-8-8-8-8-8-8-8-8-8-8-8-8-8---|
D|--8-8-8-8-8-8-8-8-8-8-8-8-8-8-8-8---|
    "And then it makes no difference"

e|---------------------------------------------------|
B|---------------------------------------------------|
G|---------------------------------------------------|
D|--10-10-10-10-10-10-10-10-10-10-10-10-10-10-10-10--|
A|--10-10-10-10-10-10-10-10-10-10-10-10-10-10-10-10--|
D|--10-10-10-10-10-10-10-10-10-10-10-10-10-10-10-10--|
      "And I don't know... (not sure of these words)"

e|------------------------------------|
B|------------------------------------|
G|------------------------------------|
D|--3-3-3-3-3-3-3-3-3-3-3-3-3-3-3-3---|
A|--3-3-3-3-3-3-3-3-3-3-3-3-3-3-3-3---|
D|--3-3-3-3-3-3-3-3-3-3-3-3-3-3-3-3---|
    "And then it's on the table"

e|------------------------------------|
B|------------------------------------|
G|------------------------------------|
D|--5-5-5-5-5-5-5-5-5-5-5-5-5-5-5-5---|
A|--5-5-5-5-5-5-5-5-5-5-5-5-5-5-5-5---|
D|--5-5-5-5-5-5-5-5-5-5-5-5-5-5-5-5---|
    "Cause she's perfectly able"

e|--------------------------------------------|
B|--------------------------------------------|
G|--------------------------------------------|
D|--8-8-8-8-8-8-8-8--10-10-10-10-10-10-10-10--|
A|--8-8-8-8-8-8-8-8--10-10-10-10-10-10-10-10--|
D|--8-8-8-8-8-8-8-8--10-10-10-10-10-10-10-10--|
        "And now I   found a little friend" 

Ending: Play Riff 1 (4x).
Comments