Nickelback - Leader Of Men Chords & Tabs

 

Leader Of Men Chords & Tabs

Nickelback Chords & Tabs

Version: 6 Type: Tab 0 ratings
1 star 2 stars 3 stars 4 stars 5 stars
comments

Leader Of Men Tab

This song kicks ass and i hope you like the tab.  After having watched them play on the
DVD live at Edmonton several times, this tab is pretty accurate. Anyway here it is:

Drop D tuning


Intro

E ---------------------------------------------------------------------|
B ---------------------------------------------------------------------|
G ---------------------------------------------------------------------|
D ---------------------------------------------------------------------|
A ---5h7--5h7--5h7--5h7--5h7--5h7--5h7--5h7--5h7--5h7--5h7--5h7--5h7---|
D ---------------------------------------------------------------------|

Play this until chad starts singing and then go into verse:


Verse

Palm muted

E ---------------------------------------------------------------------|
B ---------------------------------------------------------------------|
G ---------------------------------------------------------------------|
D --2-2-2-2-2-2-2-2--5-5-5-5-5-5-5-5--0-0-0-0-0-0-0-0--2-2-2-2-2-2-2-2-|
A --2-2-2-2-2-2-2-2--5-5-5-5-5-5-5-5--0-0-0-0-0-0-0-0--2-2-2-2-2-2-2-2-|
D --2-2-2-2-2-2-2-2--5-5-5-5-5-5-5-5--0-0-0-0-0-0-0-0--2-2-2-2-2-2-2-2-|


Repeat this on a cycle through lines:

Tell your friends not to think out loud
Until they swallow
Whisper things into my brain
Your voice sounds so hollow

I am not a leader of men
Since i prefer to follow
Do you think i could have a drink
Since it's so hard to swallow

When he says 'yeaaaaaaaaaah yeaaaaah' play these two notes

E ----------------0----|
B ----------------3----|
G ----------------2----|
D ----5-----------0----|
A ----5----------------|
D ----5----------------|


Then go back into the verse through these words:
[ Tab from: http://www.guitartabs.cc/tabs/n/nickelback/leader_of_men_tab_ver_6.html ]
Turn your television off
And i will sing a song
And if you suddenly have the urge
You can sing along
I touch your hand i touch your face
I think the fruit is rotten
Give me lessons how to breathe
Coz i think i've forgotten

(Play the yeaaaaah yeaaah bit)


Then the loud music kicks in:

E ---------------------------------------------------------------------|
B ---------------------------------------------------------------------|
G ---------------------------------------------------------------------|
D --2-2-2-2-2-2-2-2--2-2-2-2-2-2-2-2--2-2-2-2-2-2-2-2--2-2-2-2-2-2-2-2-|
A --2-2-2-2-2-2-2-2--2-2-2-2-2-2-2-2--2-2-2-2-2-2-2-2--2-2-2-2-2-2-2-2-|
D --2-2-2-2-2-2-2-2--2-2-2-2-2-2-2-2--2-2-2-2-2-2-2-2--2-2-2-2-2-2-2-2-|


When he begins to sing play this:

E ------------------------------------0-0-0-0-0-0-0-0------------------|
B ------------------------------------3-3-3-3-3-3-3-3------------------|
G ------------------------------------2-2-2-2-2-2-2-2------------------|
D --2-2-2-2-2-2-2-2--5-5-5-5-5-5-5-5--0-0-0-0-0-0-0-0--2-2-2-2-2-2-2-2-|
A --2-2-2-2-2-2-2-2--5-5-5-5-5-5-5-5-------------------2-2-2-2-2-2-2-2-|
D --2-2-2-2-2-2-2-2--5-5-5-5-5-5-5-5-------------------2-2-2-2-2-2-2-2-|


Play this through these words (the yeaaaaaah yeaah bit is the same throught this by the way):

One day out to a cliff
It overlooks the water
I jumped in to save a girl
It was somebody's daughter
And now the ring that's on my hand
Was given to me by her
And now we all sit round
And dream of ways to get higher

Yeahhhhhhhhh Yeaaaaah to get much higher

Tell your friends not to think out loud
Until they swallow
Whisper things into my brain
Your voice sounds so hollow
I am not a leader of men
Since i prefer to follow
Do you think I could have a drink
Since its so hard to swallow

Yeaaaaaaaaah Yeaaaah so hard to swallow


There you have it!! That's it. Nickelback rule and play more of their songs!!!
Comments