Nickelback - Leader Of Men Chords & Tabs

 

Leader Of Men Chords & Tabs

Nickelback Chords & Tabs

Version: 5 Type: Tab 0 ratings
1 star 2 stars 3 stars 4 stars 5 stars
comments

Leader Of Men Tab

Artist: Nickelback
Title: Leader of men
Tabber: Chris Cavill

tuning: Dropped D

1st Guitar

Intro

E-------|
B-------|
G-------|   (x18 times)
D-0h2---|
A-------|
D-----2-|

2nd guitar (comes in after 7th time round from the 1st guitar)

Strumming

E------------------|
B------------------|
G------------------|
D--0-0h2--2-2--2-2-|
A--0-0h2--2-2--2-2-|
D--0-0h2--2-2--2-2-|

Verse 1:

1st guitar (acoustic)

E-----------------------------------------------------------------|
B------------------------------------3-3-3-3-3-3-3----------------|
G------------------------------------2-2-2-2-2-2-2----------------|
D--0h2-2-2-2-2-2-2-2-5-5-5-5-5-5-5-5-0-0-0-0-0-0-0-2-2-2-2-2-2-2--|  (x3)
A--0h2-2-2-2-2-2-2-2-5-5-5-5-5-5-5-5-0-0-0-0-0-0-0-2-2-2-2-2-2-2--|
D--0h2-2-2-2-2-2-2-2-5-5-5-5-5-5-5-5-0-0-0-0-0-0-0-2-2-2-2-2-2-2--|

2nd guitar plays: (Picking)

(the numbers in brackets means he is holding the chord while picking the ones not in brackets)

E-----------------------------------------------------------------|
D---------------5----------------8-------------3-------------5----|
G----------------4----------------7-------------2-------------4---|
D-----------------2----------------5-------------0-------------2--| (x3)
A----------------(2)--------------(5)-----------------------------|(2)
D----------------(2)--------------(5)-----------------------------|(2)


Both guitars:

E----------------------------------------------------------------|
B----------------------------------------------------------------|
G----------------------------------------------------------------|
D-5-------7-----------------2--------------2-2-2-2-2-2-2-2-2-2-2-|
A-5-------7-----------------2--------------2-2-2-2-2-2-2-2-2-2-2-|
D-5-------7-----------------2--------------2-2-2-2-2-2-2-2-2-2-2-|

verse 2:

(Gtr 1)
[ Tab from: http://www.guitartabs.cc/tabs/n/nickelback/leader_of_men_tab_ver_5.html ]
E-----------------------------------------------------------------|
B------------------------------------3-3-3-3-3-3-3----------------|
G------------------------------------2-2-2-2-2-2-2----------------|
D--0h2-2-2-2-2-2-2-2-5-5-5-5-5-5-5-5-0-0-0-0-0-0-0-2-2-2-2-2-2-2--|  (x3)
A--0h2-2-2-2-2-2-2-2-5-5-5-5-5-5-5-5-0-0-0-0-0-0-0-2-2-2-2-2-2-2--|
D--0h2-2-2-2-2-2-2-2-5-5-5-5-5-5-5-5-0-0-0-0-0-0-0-2-2-2-2-2-2-2--|

(Gtr 2)

E-----------------------------------------------------------------|
D---------------5----------------8-------------3-------------5----|
G----------------4----------------7-------------2-------------4---|
D-----------------2----------------5-------------0-------------2--| (x3)
A----------------(2)--------------(5)-----------------------------|(2)
D----------------(2)--------------(5)-----------------------------|(2)

Both guitars:

E-----------------|
B-----------------|
G-----------------|
D-5-------7-------|
A-5-------7-------|
D-5-------7-------|

heavey distortion

E-------------------|
B-------------------|
G-------------------|
D--0h2-2-2-2-2-2-2--|  (x4)
A--0h2-2-2-2-2-2-2--|
D--0h2-2-2-2-2-2-2--|

E-----------------------------------------------------------------|
B------------------------------------3-3-3-3-3-3-3----------------|
G------------------------------------2-2-2-2-2-2-2----------------|
D--0h2-2-2-2-2-2-2-2-5-5-5-5-5-5-5-5-0-0-0-0-0-0-0-2-2-2-2-2-2-2--|  (x4)
A--0h2-2-2-2-2-2-2-2-5-5-5-5-5-5-5-5-0-0-0-0-0-0-0-2-2-2-2-2-2-2--|
D--0h2-2-2-2-2-2-2-2-5-5-5-5-5-5-5-5-0-0-0-0-0-0-0-2-2-2-2-2-2-2--|

Both guitars:

(Strum several times)

E-----------------|
B-----------------|
G-----------------|
D-5-------7-------|
A-5-------7-------|
D-5-------7-------|

E-------------------|
B-------------------|
G-------------------|
D--0h2-2-2-2-2-2-2--|  (x4)
A--0h2-2-2-2-2-2-2--|
D--0h2-2-2-2-2-2-2--|

E-----------------------------------------------------------------|
B------------------------------------3-3-3-3-3-3-3----------------|
G------------------------------------2-2-2-2-2-2-2----------------|
D--0h2-2-2-2-2-2-2-2-5-5-5-5-5-5-5-5-0-0-0-0-0-0-0-2-2-2-2-2-2-2--|  (x4)
A--0h2-2-2-2-2-2-2-2-5-5-5-5-5-5-5-5-0-0-0-0-0-0-0-2-2-2-2-2-2-2--|
D--0h2-2-2-2-2-2-2-2-5-5-5-5-5-5-5-5-0-0-0-0-0-0-0-2-2-2-2-2-2-2--|


E-----------------------------|
B-----------------------------|
G-----------------------------|
D-5-------7-----------------2-| (fade out with song)
A-5-------7-----------------2-|
D-5-------7-----------------2-|

This was my 3rd tab so?

If you could review and rate this tab i would be most greatful!
Comments