Nickelback - Leader Of Men Chords & Tabs

 

Leader Of Men Chords & Tabs

Nickelback Chords & Tabs

Version: 1 Type: Tab 0 ratings
1 star 2 stars 3 stars 4 stars 5 stars
comments

Leader Of Men Tab

#----------------------------------PLEASE NOTE--------------------------------#
#This file is the author's own work and represents their interpretation of the#
#song. You may only use this file for private study, scholarship, or research.#
#-----------------------------------------------------------------------------#
#-- File created with Instab - http://www.pconline.com/~smcarey/instab.html --#
#-----------------------------------------------------------------------------#

Author/Artist: Nickleback
Title: Leader Of Men
Album: The State
Transcribed by: Michael Cusack(16)
Email: Mike_c16@hotmail.com

One of the best songs from this great band.
Irish rockers rock hardest.

Drop D tuning  
( * = distortion)


Intro x2 : Electric guitar with slight reverb
e------------------------------------------------------------------------------
B------------------------------------------------------------------------------
G------------------------------------------------------------------------------
D--0h2-2-2-2-2-2---0h2-2-2-2-2-2---0h2-2-2-2-2-2-------------------------------
A------------------------------------------------------------------------------
D------------------------------------------------------------------------------
 
 After two bars acoustic guitar  plays : x2                                  
e------------------------------------------------------------------------------
B------------------------------------------------------------------------------
G------------------------------------------------------------------------------
D----0-2-2-2-2-2-2----0-2-2-2-2-2-2--------------------------------------------
A----0-2-2-2-2-2-2----0-2-2-2-2-2-2--------------------------------------------
D----0h2-2-2-2-2-2----0h2-2-2-2-2-2--------------------------------------------
[ Tab from: http://www.guitartabs.cc/tabs/n/nickelback/leader_of_men_tab.html ]
Verse 1:Acoustic(palm muted) x4                                              
e------------------------------------------------------------------------------
B------------------------------------------------------------------------------
G-----------------------------------7-7-7-7-7-7-7-7----------------------------
D-2-2-2-2-2-2-2-2--7-7-7-7-7-7-7-7--7-7-7-7-7-7-7-7--2-2-2-2-2-2-2-2-----------
A-2-2-2-2-2-2-2-2--5-5-5-5-5-5-5-5--5-5-5-5-5-5-5-5--2-2-2-2-2-2-2-2-----------
D-2-2-2-2-2-2-2-2--5-5-5-5-5-5-5-5-------------------2-2-2-2-2-2-2-2-----------
  
Bridge:  (0:52)                                                             
e------------------------------------------------------------------------------
B------------------------------------------------------------------------------
G------------------------------------------------------------------------------
D------5-5-5-5--7-7-7-7--2-2-2-2-2-2-2-2--0-2-2-2-2-2-2-2----------------------
A------5-5-5-5--7-7-7-7--2-2-2-2-2-2-2-2--0-2-2-2-2-2-2-2----------------------
D------5-5-5-5--7-7-7-7--2-2-2-2-2-2-2-2--0h2-2-2-2-2-2-2----------------------
 
Verse 2:                                                                     
e------------------------------------------------------------------------------
B------------------------------------------------------------------------------
G-----------------------------------7-7-7-7-7-7-7-7----------------------------
D-2-2-2-2-2-2-2-2--7-7-7-7-7-7-7-7--7-7-7-7-7-7-7-7--2-2-2-2-2-2-2-2-----------
A-2-2-2-2-2-2-2-2--5-5-5-5-5-5-5-5--5-5-5-5-5-5-5-5--2-2-2-2-2-2-2-2-----------
D-2-2-2-2-2-2-2-2--5-5-5-5-5-5-5-5-------------------2-2-2-2-2-2-2-2-----------
  
Bridge:                                                                     
e-----------------------------------------------------------------------------
B------------------------------------------------------------------------------
G------------------------------------------------------------------------------
D------5-5-5-5--7-7-7-7-*2-2-2-2-2-2-2-2--0-2-2-2-2-2-2-2----------------------
A------5-5-5-5--7-7-7-7-*2-2-2-2-2-2-2-2--0-2-2-2-2-2-2-2----------------------
D------5-5-5-5--7-7-7-7-*2-2-2-2-2-2-2-2--0h2-2-2-2-2-2-2----------------------
 Then back into verse, folowed by the bridge and then the last verse.         

  Any comments,corrections,suggestions e-mail me : mike_c16@hotmail.com 
Comments