Nickelback - If Everyone Cared Chords & Tabs

 

If Everyone Cared Chords & Tabs

Nickelback Chords & Tabs

Version: 4 Type: Tab

If Everyone Cared Tab

----------------------------
Artist: Nickelback
Song: If Everyone Cared 
Tuning: Standard
----------------------------
Tabbed by: Niko
Email: niko@symboldesign.hu
----------------------------

Verse/Intro(/After chorus with distorsion (muted))

e|-------------------------------------------------------------------------|
B|-------------------------------------------------------------------------|
G|----------1----------------4---------------------------------1-----------|
D|------4-------4--------7--------7-------2----4----2------4-------4-------|
A|----4---4---4--------7---7----7-------2---2-----2-------4---4---4--------|
E|--2----------------5----------------0----------------2-------------------|

Singing Amen...

e|--------------------------9---------9------------------------------------|
B|------------10-9----------9---------9------------------------------------|
G|---------11-------------9--------11--------------------------------------|
D|------11--------------9-------11-----------------------------------------|
A|----9---------------7-------9--------------------------------------------|
E|-------------------------------------------------------------------------|

(the second accord is not sure...maybe the third is that, twice)

Chorus
[ Tab from: http://www.guitartabs.cc/tabs/n/nickelback/if_everyone_cared_tab_ver_4.html ]
e|-----------------------------------------| 
B|-----------------------------------------| 
G|-----------------------------------------| 
D|-4-4----7-7----2-2----4-4----7-7----2~---|
A|-4-4----7-7----2-2----4-4----7-7----2~---|
E|-2-2----5-5----0-0----2-2----5-5----0~---|


Solo

E|--------------------------------------------------------------|
B|------------2--------------2--------------5-s7--7-s10---------|
G|-----2--4-----------2--4------4--2--4-s6--------------------14|
D|--4-------------4---------------------------------------s16---|
A|--------------------------------------------------------------|
D|--------------------------------------------------------------|

E|------------------------------|
B|----14--------------14--------|
G|16----------14--16--------16~~|
D|--------16--------------------|
A|------------------------------|
D|------------------------------|


After solo verse

e|-----------------------------------7----------9-----------9--------------|
B|-----------10-9----------14-------------------------------------------14-|
G|--------11------------14---------9---------11----------11----------14----|
D|-----11------------14----------9--------11----------11----------14-------|
A|---9------------12-----------7--------9-----------9----------12----------|
E|-------------------------------------------------------------------------|


e|--------7------|
B|---------------|
G|------9--------|
D|----9----------|
A|--7------------|
E|---------------|



Cheers,
Niko