Nickelback - If Everyone Cared Chords & Tabs

 

If Everyone Cared Chords & Tabs

Nickelback Chords & Tabs

Version: 2 Type: Tab 0 ratings
1 star 2 stars 3 stars 4 stars 5 stars
comments

If Everyone Cared Tab

   
Artist: Nickelback
Song: If Everyone Cared [Track 09]
Album: All The Right Reasons
Tuning: Drop D [D-A-D-G-B-E]


Ok.. This is the first tab for this song here. I'll not say that it is 100% accurate
but go ahead and try it. i don't know the solo yet, but i'm working on it.

Intro/Verse [Guitar 1] - acoustic
|-----------------|----------------|----------------|----------------|
|-----------------|----------------|----------------|----------------|
|-----------------|----------------|----------------|----------------|
|-----4---4h6---6-|----7---7h9---9-|----2---2h4---4-|----4---4h6---4-|
|---4-------------|--7-------------|--2-------------|--4-------------|
|-4-----4-----4---|7-----7-----7---|2-----2-----2---|4-----4-----4---|\
|								       \ x4
|[Guitar 2]							       /
|-----------------|----------------|----------------|----------------|/
|-----------------|----------------|----------------|----------------|
|-----------------|----------------|----------------|----------------|
|-----------------|----------------|----------------|----------------|
|-----------------|----------------|----------------|----------------|
|-----------------|----------------|----------------|----------------|


Prechorus [Guitar 1] - Slow strumming
|------------|------------|------------|------------|  this last note, the
|------------|------------|------------|------------|  "4" is done in the
|------------|------------|------------|------------|  second time only
|-7----------|-2----------|-4----------|------------|\
|-7----------|-2----------|-4----------|------------| \
|-7----------|-2----------|-4----------|----------4-|  \
| Amen         I      I'm alive  (I'm alive ) singing   \
|						         \ x2
|[Guitar 2]					         /
|------------|------------|------------|--------------| /
|------------|------------|------------| something is |/
|------------|------------|------------| played here  |
|------------|------------|------------| when he says |
|------------|------------|------------| "if everyone |
|------------|------------|------------|  cared"      |


Chorus [Guitar 1] - distorted
|----------------|----------------|----------------|----------------|
|----------------|----------------|----------------|----------------|
|----------------|----------------|----------------|----------------|
|-0--------------|-7--------------|-2--------------|-4--------------|
|-0--------------|-7--------------|-2--------------|-4--------------|\
|-0--------------|-7--------------|-2--------------|-4--------------| \
|cared....      died.... 	    loved....     lied....             \
|shared....     prides....        day.... (end on the 3rd bar)          \
|									/ x2
|[Guitar 2] - acoustic	(strumming)				       /
|----------------|----------------|----------------|----------------| /
|----------------|----------------|----------------|----------------|/
|----------------|----------------|----------------|----------------|
|-0-----------00-|-7-----------77-|-2-----------22-|-4-----------44-|
|-0-----------00-|-7-----------77-|-2-----------22-|-4-----------44-|
|-0-----------00-|-7-----------77-|-2-----------22-|-4-----------44-|
           PM ..	       ..		..		 ..


After Chorus [Guitar 1] - muted (distorted)
|-----------------|----------------|----------------|----------------|
|-----------------|----------------|----------------|----------------|
|-----------------|----------------|----------------|----------------|
|-----4---6p4---6-|----7---9p7---9-|----2---4p2---4-|----4---6p4---4-|
|---4-------------|--7-------------|--2-------------|--4-------------|\
|-4-----4-----4---|7-----7-----7---|2-----2-----2---|4-----4-----4---| \
|       Amen I ...       Amen I ...       Amen I ...       Amen I ...   \
|								        / x2
|[Guitar 2]							       /
|-----------------|----------------|----------------|----------------|/
|-----------------|----------------|----------------|----------------|
|-----------------|----------------|----------------|----------------|
|-----------------|----------------|----------------|----------------|
|-----------------|----------------|----------------|----------------|
|-----------------|----------------|----------------|----------------|

[ Tab from: http://www.guitartabs.cc/tabs/n/nickelback/if_everyone_cared_tab_ver_2.html ]
Verse 2 [Guitar 1] - acoustic
|-----------------|----------------|----------------|----------------|
|-----------------|----------------|----------------|----------------|
|-----------------|----------------|----------------|----------------|
|-----4---4h6---6-|----7---7h9---9-|----2---2h4---4-|----4---4h6---4-|
|---4-------------|--7-------------|--2-------------|--4-------------|
|-4-----4-----4---|7-----7-----7---|2-----2-----2---|4-----4-----4---|\
|								       \ x4
|[Guitar 2]							       /
|-----------------|----------------|----------------|----------------|/
|-----------------|----------------|----------------|----------------|
|-----------------|----------------|----------------|----------------|
|-----------------|----------------|----------------|----------------|
|-----------------|----------------|----------------|----------------|
|-----------------|----------------|----------------|----------------|


Prechorus [Guitar 1] - Slow strumming
|------------|------------|------------|------------|  this last note, the
|------------|------------|------------|------------|  "4" is done in the
|------------|------------|------------|------------|  second time only
|-7----------|-2----------|-4----------|------------|\
|-7----------|-2----------|-4----------|------------| \
|-7----------|-2----------|-4----------|----------4-|  \
| Amen         I      I'm alive  (I'm alive ) singing   \
|						         \ x2
|[Guitar 2]					         /
|------------|------------|------------|--------------| /
|------------|------------|------------| something is |/
|------------|------------|------------| played here  |
|------------|------------|------------| when he says |
|------------|------------|------------| "if everyone |
|------------|------------|------------|  cared"      |


Chorus [Guitar 1] - distorted
|----------------|----------------|----------------|----------------|
|----------------|----------------|----------------|----------------|
|----------------|----------------|----------------|----------------|
|-0--------------|-7--------------|-2--------------|-4--------------|
|-0--------------|-7--------------|-2--------------|-4--------------|\
|-0--------------|-7--------------|-2--------------|-4--------------| \
|cared....      died.... 	    loved....     lied....             \
|shared....     prides....        day.... (end on the 3rd bar)          \
|									/ x4
|[Guitar 2] - acoustic	(strumming)				       /
|----------------|----------------|----------------|----------------| /
|----------------|----------------|----------------|----------------|/
|----------------|----------------|----------------|----------------|
|-0-----------00-|-7-----------77-|-2-----------22-|-4-----------44-|
|-0-----------00-|-7-----------77-|-2-----------22-|-4-----------44-|
|-0-----------00-|-7-----------77-|-2-----------22-|-4-----------44-|
           PM ..	       ..		..		 ..


Solo - sorry, i don't know it yet..but at the background, Guitar 2 is playing:
|----------------|----------------|----------------|----------------|
|----------------|----------------|----------------|----------------|
|----------------|----------------|----------------|----------------|
|-0-----------00-|-7-----------77-|-2-----------22-|-4-----------44-|
|-0-----------00-|-7-----------77-|-2-----------22-|-4-----------44-|
|-0-----------00-|-7-----------77-|-2-----------22-|-4-----------44-|
           PM ..	       ..		..		 ..


After solo - no guitar here


Chorus [Guitar 1] - distorted
|----------------|----------------|----------------|----------------|
|----------------|----------------|----------------|----------------|
|----------------|----------------|----------------|----------------|
|-0--------------|-7--------------|-2--------------|-4--------------|
|-0--------------|-7--------------|-2--------------|-4--------------|\
|-0--------------|-7--------------|-2--------------|-4--------------| \
|cared....      died.... 	    loved....     lied....             \
|shared....     prides....        day.... (end on the 3rd bar)          \
|									/ x7
|[Guitar 2] - acoustic	(strumming)				       /
|----------------|----------------|----------------|----------------| /
|----------------|----------------|----------------|----------------|/
|----------------|----------------|----------------|----------------|
|-0-----------00-|-7-----------77-|-2-----------22-|-4-----------44-|
|-0-----------00-|-7-----------77-|-2-----------22-|-4-----------44-|
|-0-----------00-|-7-----------77-|-2-----------22-|-4-----------44-|
           PM ..	       ..		..		 ..


On the 7th time, end on the 3rd bar:
|-----|
|-----|
|-----|
|-2---|
|-2---|
|-2---|


That is it.. its a really cool song.. it will be nice if someone tabbed the bass tab.
send any comments/corrections to specialalaa@hotmail.com  [OR]  specialalaa@gmail.com
Comments