Nickelback - If Everyone Cared Chords & Tabs

 

If Everyone Cared Chords & Tabs

Nickelback Chords & Tabs

Version: 1 Type: Tab 0 ratings
1 star 2 stars 3 stars 4 stars 5 stars
comments

If Everyone Cared Tab

----------------------------------------------------------------------------
			     If Everyone Cared - Nickelback
----------------------------------------------------------------------------
Tabbed by: J-Stew
Email: dude88062000@yahoo.com

Tuning: Standard

Verse/Intro
[ Tab from: http://www.guitartabs.cc/tabs/n/nickelback/if_everyone_cared_tab.html ]
e|-------------------------------------------------------------------------|
B|-------------------------------------------------------------------------|
G|----------2----------------4----------------1----------------2-----------|
D|------4-------4--------7--------7-------2---------2------4-------4-------|
A|----4---4---4--------7---7----7-------2---2----2-------4---4---4---------|
E|--2----------------5----------------0----------------2-------------------|

Okay some of you might question the 4 in the A chord but the reason why that
note is their is because of the chord construction they made. If you read on
guitar theory on this web site it will explain more.


Chorus

e|---------------0-0------------------0~---| I kinda gave you the rythym
B|---------------0-0------------------0~---| but still listen to the song
G|---------------1-1------------------1~---| fot timing.
D|-4-4----7-7----2-2----4-4----7-7----2~---|
A|-4-4----7-7----2-2----4-4----7-7----2~---|
E|-2-2----5-5----0-0----2-2----5-5----0~---|


Sorry no solo but if you fool around with the F# Scale you might find a little way to make one up. 
Comments